» » »

Butterfly Effect - Everybody Runs Tabs

Artists:  A B C D E F G H I J K L M N O P Q R S T U V W X Y Z # 

Everybody Runs Tabs

(ver. 1) Click to play this song!
Butterfly Effect
 Rating:
4.3/5 (6 votes)

 Everybody Runs lessons Tabs too difficult? Try these video lessons and learn fast
 
                -------------------------------------------------------------
                 Everybody Runs - The Butterfly Effect
--------------------------------------------------------------------

Tuning: Drop C

Intro and most of the verse is bass

0:44
D|-----------------------------------------------------|
A|---------------3\1-----------------------------------|
F|-----0-----3-----------3-----0-----------------------|
C|-----------------------------------------------------|x2
G|--3-----3-----------3-----3--------------------------|
C|-----------------------------------------------------|


1:36
D|-----------------------------------------------------|
A|---------------3\1-----------------------------------|
F|-----0-----3-----------3-----0-----------------------|
C|-----------------------------------------------------|x2
G|--3-----3-----------3-----3--------------------------|
C|-----------------------------------------------------|

1:50
D|-----------------------------------------------------|
A|-----------------------------------------------------|
F|---------3-2-----------------------------------------|
C|--1-3-5-------5\3------------------------------------|x2
G|-----------------------------------------------------|
C|-----------------------------------------------------|


Chorus
D|--55-x-555-5-x-55-5-66-x-666-6-x-6\33-x-333-3-x-33------------|
A|--55-x-555-5-x-55-5-66-x-666-6-x-6\33-x-333-3-x-33--66-666-6--|
F|--77-x-777-7-x-77-7/88-x-888-8-x-8\55-x-555-5-x-55--55-555-5--|
C|--77-x-777-7-x-77-7/88-x-888-8-x-8\55-x-555-5-x-55--33-333-3--|
G|--55-x-555-5-x-55-5/66-x-666-6-x-6\33-x-333-3-x-33--33-333-3--|
C|----------------------------------------------------33-333-3--|

D|-8-8--x-8-8-8--8--x-8-8---------------------------------------|
A|-1111-x-111111-11-x-1111--77--88--10--------------------------|
F|-1010-x-101010-10-x-1010--88--88---8--------------------------|
C|-8-8--x-8-8-8--8--x-8-8---66--66---6--------------------------|
G|-8-8--x-8-8-8--8--x-8-8---------------------------------------|
C|--------------------------------------------------------------|

D|------------------66-x-666-6-x-66--66-x-666-6-x-66\33-x-3333-x-33--|
A|-88-x-888-8-x-88--66-x-666-6-x-66--99-x-999-9-x-99\66-x-6666-x-66--|
F|-77-x-777-7-x-77--88-x-888-8-x-88--88-x-888-8-x-88\55-x-5555-x-55--|
C|-55-x-555-5-x-55--88-x-888-8-x-88--66-x-666-6-x-66\33-x-3333-x-33--|
G|-55-x-555-5-x-55--66-x-666-6-x-66--66-x-666-6-x-66\33-x-3333-x-33--|
C|-------------------------------------------------------------------|

D|-/8-8--x--8-8-8--8--x-8-8----------------|
A|-/1111-x--111111-11-x-1111---------------|
F|-/1010-x--101010-10-x-1010--77-88-10-----|
C|-/8-8--x--8-8-8--8--x-8-8---88-88-8------|
G|-/8-8--x--8-8-8--8--x-8-8---66-66-6------|
C|-----------------------------------------|

2:49
D|-------------------------------|
A|-------------------------------|
F|-------------------------------|x4
C|-------------------------------|
G|--3h5-5^-3h5--5h3-5^--5p3p0----|
C|--3h5-5^-3h5--5h3-5^--5p3p0----|

3:03
D|-----------------------------------------------------|
A|-----------------------------------------------------|
F|---------3-2-----------------------------------------|
C|--1-3-5-------5\3------------------------------------|x2
G|-----------------------------------------------------|
C|-----------------------------------------------------|

Repeat Chorus

Play this until song ends
D|------------------|
A|-77-88-10---------|
F|-88-88-8----------|
C|-66-66-6----------|
G|------------------|
C|------------------|


| ^  bend note
| /  slide up
| \  slide down
| h  hammer-on
| p  pull-off
| ~  vibrato
| +  harmonic
| x  Mute note
==================================================
            
Submit corrections


        Everybody Runs lessons Hard to play? Try these video lessons and learn fast Everybody Runs lessons
        
↑ Back to top | Tablatures and chords for acoustic guitar and electric guitar, ukulele, drums are parodies/interpretations of the original songs. You may use it for private study, scholarship, research or language learning purposes only