» » »

Butterfly Effect - Before They Knew Tabs

Artists:  A B C D E F G H I J K L M N O P Q R S T U V W X Y Z # 

Before They Knew Tabs

(ver. 2) Click to play this song!
Butterfly Effect
 Rating:
4/5 (4 votes)

 Before They Knew lessons Tabs too difficult? Try these video lessons and learn fast
 
                -------------------------------------------------------------
          Before They Knew - The Butterfly Effect
-------------------------------------------------------------

Tuning: Drop C

Intro
D|-----------------------------------------------------------|
A|------3-----3------3------3-----6------6------5------5-----|
F|-----------------------------------------------------------|x2
C|-----------------------------------------------------------|
G|--55-----55----55-----55-----88----88-----77-----77--------|
C|-----------------------------------------------------------|
verse
D|-----------------------------------------------------------|
A|--------6--------6--------6--------6-----------------------|
F|------7--------7--------7--------7-------------------------|x4
C|-----------------------------------------------------------|
G|--555------555------555------555---------------------------|
C|-----------------------------------------------------------|
    ...      ...      ...      ...

0:37
D|---8-8-8-8-8-------8-8-8-8-8-------------------------------|
A|-------------6---------------6-----------6-------6---------|
F|---------------7---------------7-------7-------7-----------|
C|-----------------------------------------------------------|
G|-----------------------------------555-----555-------------|
C|-----------------------------------------------------------|
                                     ...     ...
0:48
D|---8-8-8-8-8-------8-8-8-8-8--------8-8-8-8-8-----8-8-8-8-8-------|
A|-------------6---------------6----------------6-------------6-----|
F|---------------7---------------7----------------7-------------7---|
C|------------------------------------------------------------------|
G|------------------------------------------------------------------|
C|------------------------------------------------------------------|
                                    
0:56
D|--------------------|
A|--------------------|
F|--7~-----7-7--------|
C|--7~-----7-7--------|
G|--5~-----5-5--------|
C|--------------------|

1:03
D|---8------8-----8------8-------------|
A|-----6------6-----6------6-----------|
F|-------7------7-----7------7---------|
C|-------------------------------------|
G|-------------------------------------|
C|-------------------------------------|

repeat verse

Chorus
D|-----------------------------------------------|
A|-----------------------------------------------|
F|-------5-4-------5-4------10-9-------10-9------|
C|--3-3-------5-5-------7-7-------7-7------------|
G|--3-3-------5-5-------7-7-------7-7------------|
C|--3-3-------5-5-------7-7-------7-7------------|

Thats all i've done. don't hate on me for being lazy.


| .  palm mute
| /  slide up
| \  slide down
| h  hammer-on
| p  pull-off
| ~  vibrato
| +  harmonic
| x  Mute note
            
Submit corrections


        Before They Knew lessons Hard to play? Try these video lessons and learn fast Before They Knew lessons
        
↑ Back to top | Tablatures and chords for acoustic guitar and electric guitar, ukulele, drums are parodies/interpretations of the original songs. You may use it for private study, scholarship, research or language learning purposes only