» » »

Busted - What I Go To School For Bass

Artists:  A B C D E F G H I J K L M N O P Q R S T U V W X Y Z # 

What I Go To School For Bass

(ver. 1) Click to play this song!
Busted
 Rating:
4/5 (4 votes)
                (1)
Intro [x1]
G:--------
D:--------
A:-4h5-4h5
E:--------

Verse 1 Part 1 [x3]
G:-----------------------------------------------------------------
D:-----------------------------------------------------------------
A:-0-0-0-0-0-0-0-0-7-7-7-7-7-7-7-7-9-9-9-9-9-9-9-5-5-5-5-4h5-4h5---
E:-----------------------------------------------------------------

Verse 1 Part 2 [x1]
G:-------------------------------------------------------------
D:-------------------------------------------------------------
A:-0-0-0-0-0-0-0-0-7-7-7-7-7-7-7-7-9-9-9-9-9-9-9-9---5-5---5-5-
E:-------------------------------------------------------------


Chorus Part 1 [x2]
G:-----------------------------------------------------------------
D:-----------------------------------------------------------------
A:-0-0-0-0-0-0-0-0-5-5-5-5-5-5-5-5---------------------------------
E:---------------------------------2-2-2-2-2-2-2-2-0-0-0-0-0-0-0-0-

Chorus Part 2 [x1]
G:------------------------
D:------------------------
A:-5-5-5-5-5-5-5-5--7-7-7-
E:------------------------


Interlude [x1]
G:---------------------------------
D:---------------------------------
A:-0-0-0-0-0-0-0-0-2-2-2-2-5-5-5-5-
E:---------------------------------

Verse 2 Part 1 [x3]
G:-----------------------------------------------------------------
D:-----------------------------------------------------------------
A:-0-0-0-0-0-0-0-0-7-7-7-7-7-7-7-7-9-9-9-9-9-9-9-5-5-5-5-5-5-5-5---
E:-----------------------------------------------------------------

Verse 2 Part 2 [x1]
G:-------------------------------------------------------------
D:-------------------------------------------------------------
A:-0-0-0-0-0-0-0-0-7-7-7-7-7-7-7-7-9-9-9-9-9-9-9-9---5-5---5-5-
E:-------------------------------------------------------------


Chorus Part 1 [x2]
G:-----------------------------------------------------------------
D:-----------------------------------------------------------------
A:-0-0-0-0-0-0-0-0-5-5-5-5-5-5-5-5---------------------------------
E:---------------------------------2-2-2-2-2-2-2-2-0-0-0-0-0-0-0-0-

Chorus Part 2 [x1]
G:------------------------
D:------------------------
A:-5-5-5-5-5-5-5-5--7-7-7-
E:------------------------


Bridge Part 1 [x3]
G:-------------------------------------------------------------------
D:-4-4-4-4-4-4-4-4-2-2-2-2-2-2-2-2-0-0-0-0-0-0-0-0-0-0-0-0-0-2-2-2-2-
A:-------------------------------------------------------------------
E:-------------------------------------------------------------------

Bridge Part 2 [x1]
G:-----------------------------------------------------------------
D:-----------------------------------------------------------------
A:-0-0-0-0-0-0-0-0-7-7-7-7-7-7-7-7-9-9-9-9-9-9-9-5-5-5-5-5-5-5-5---
E:-----------------------------------------------------------------

Bridge Part 3 [x1]
G:-------------------------------------------------------------
D:-------------------------------------------------------------
A:-0-0-0-0-0-0-0-0-7-7-7-7-7-7-7-7-9-9-9-9-9-9-9-9---5-5---5-5-
E:-------------------------------------------------------------


Chorus Part 1 [x2]
G:-----------------------------------------------------------------
D:-----------------------------------------------------------------
A:-0-0-0-0-0-0-0-0-5-5-5-5-5-5-5-5---------------------------------
E:---------------------------------2-2-2-2-2-2-2-2-0-0-0-0-0-0-0-0-

Chorus Part 2 [x1]
G:------------------------
D:------------------------
A:-5-5-5-5-5-5-5-5--7-7-7-
E:------------------------

End On
G:---
D:---
A:-5-
E:---

There it is, pretty simple, listen to the song to get the timing.  The intro comes in right before the first verse, you should be able to here it.


Happy Masterbassing ;-p
            
Submit corrections

↑ Back to top | Tablatures and chords for acoustic guitar and electric guitar, ukulele, drums are parodies/interpretations of the original songs. You may use it for private study, scholarship, research or language learning purposes only