Home » B » Burden Of A Day »

Burden Of A Day - Battle For Hoth Tabs

Artists:  A B C D E F G H I J K L M N O P Q R S T U V W X Y Z # 

Battle For Hoth Tabs

(ver. 2) Click to play this song!
Burden Of A Day
(Intro)
my bands doing a cover of this song and i could do the whole song it'd just take to long 
srry, but the intro is 100% right

Guitar 1 (x2)
D---------------------------------------------------------------------------|
A---------------------------------------------------------------------------|
F---------------------------------------------------------------------------|
C-------5-----------5---------5---7-----5-----------------------------------|
G-5-7-8---8-7-8-5-8---7-3/5-8---7---5-8---7-3/5-8-8h10p0-7h8p0-8h10p0-7h8p0-|
C---------------------------------------------------------------------------|

Guitar 2 (x2)
D---------------------------------------------------------------------------|
A---------------------------------------------------------------------------|
F---------------------------------5-----------------------------------------|
C---5-7-8-7-5-7---7-8-5-2/3-7-8-5---3-7-8-5-2/3-7-7h8p0-5h7p0-7h8p0-5h7p0---|
G-8-------------8-----------------------------------------------------------|
C---------------------------------------------------------------------------|
            
Submit corrections

↑ Back to top | Tablatures and chords for acoustic guitar and electric guitar, ukulele, drums are parodies/interpretations of the original songs. You may use it for private study, scholarship, research or language learning purposes only