Home » B » Burden Of A Day »

Burden Of A Day - Ashes To Ashes Tabs

Artists:  A B C D E F G H I J K L M N O P Q R S T U V W X Y Z # 

Ashes To Ashes Tabs

(ver. 3) Click to play this song!
Burden Of A Day
(Intro)
1st Guitar

Eb-----------------------------------------------------------------|
Bb-----------------------------------------------------------------|
Gb-----------------------------------------------------------------|
Db-777777-55-888888-77-101010101010-88-1212-1010-88-1010-----------|
Ab-----------------------------------------------------------------|
Db-----------------------------------------------------------------|

                                                                   x4

Eb-----------------------------------------------------------------|
Bb-----------------------------------------------------------------|
Gb-----------------------------------------------------------------|
Db-----------------------------------------------------------------|
Ab-00-7h8-00-7h8-00-7h8-00-7h8-00-7h8-007h8-00-7h8-00-7h8----------|
Db-00-----00-----00-----00-----00-----00----00-----00--------------|

2nd Guitar

Eb-----------------------------------------------------------------|
Bb-----------------------------------------------------------------|
Gb-----------------------------------------------------------------|
Db-----------------------------------------------------------------|
Ab-888888-77-101010101010-88-121212121212-1010-1313-1212-1010-1212-|
Db-----------------------------------------------------------------|

                                                                   x4

Eb-----------------------------------------------------------------|
Bb-----------------------------------------------------------------|
Gb-----------------------------------------------------------------|
Db-----------------------------------------------------------------|
Ab-00-3h5-00-3h5-00-3h5-00-3h5-00-3h5-00-3h5-00-3h5-00-3h5---------|
Db-00-----00-----00-----00-----00-----00-----00-----00-------------|

then last time

Eb-----------------------------------------------------------------|
Bb-----------------------------------------------------------------|
Gb-----------------------------------------------------------------|
Db-----------------------------------------------------------------|
Ab-0---------------------------------------------------------------|
Db-0---------------------------------------------------------------|
            
Submit corrections

↑ Back to top | Tablatures and chords for acoustic guitar and electric guitar, ukulele, drums are parodies/interpretations of the original songs. You may use it for private study, scholarship, research or language learning purposes only