Home » B » Burden Of A Day »

Burden Of A Day - Anatomy Of A Scene Tabs

Artists:  A B C D E F G H I J K L M N O P Q R S T U V W X Y Z # 

Anatomy Of A Scene Tabs

(ver. 1) Click to play this song!
Burden Of A Day
(Intro)
Artist - Burden of a Day
Song - Anatomy of a Scene
Album - Pilots & Paper Airlplanes

e---------------------------------------------------------------|
B---------------------------------------------------------------|
G---------------------------------------------------------------|
D-------77------------7-530--------------77------------7-530----|
A-------55-------------------------------55---------------------|
D-5555--55--5555---------------5555------55--5555---------------|
  ....      ....               ....          ....
e---------------------------------------------------------------|
B---------------------------------------------------------------|
G---------------------------------------------------------------|
D-------88-------------8-642----------88--------------8-642-----|
A-------66----------------------------66------------------------|
D-6666--66--6666----------------6666--66--6666------------------|
  ....      ....                ....      ....

Okay, I know it's just the intro, but hopefully it helps you out. It's my first tab so 
might suck, if it does tell me.

Thanks, ice_wiz
            
Submit corrections

↑ Back to top | Tablatures and chords for acoustic guitar and electric guitar, ukulele, drums are parodies/interpretations of the original songs. You may use it for private study, scholarship, research or language learning purposes only