» » »

Bully - Sharktooth Tabs

Artists:  A B C D E F G H I J K L M N O P Q R S T U V W X Y Z # 

Sharktooth Tabs

(ver. 1) Click to play this song!
Bully
 Rating:
4.3/5 (15 votes)

 Sharktooth lessons Tabs too difficult? Try these video lessons and learn fast
 
                [Verse 1]
I'll never sleep with you again
I don't want you broke over me
If you're playing with the dealer's rent
You can't be living completely

And even though it's only you
That brings me way down low
I still get terribly sick
When I see the place you're gonna go

e|---------------------------------------------------------------------------|
B|---------------------------------------------------------------------------|
G|---------13-x-8/9-x--------------------------------------------------------|
D|-9-x-7-x-13-x-8/9-x--------------------------------------------------------| (x8)
A|-9-x-7-x-11-x-6/7-x--------------------------------------------------------|
E|-7-x-5-x-------------------------------------------------------------------|

[Chorus]
I'm not pulling out your shark tooth
You got stuck up in the first place
And now you're swimming, ain't you, baby?
You keep blaming me for settling
I'm feeling good
It's time to stop pointing fingers
It's time to buck up, Billy, be a man

e|---------------------------------------------------------------------------|
B|---------------------------------------------------------------------------|
G|---------------------------------------------------------------------------|
D|-9-x-14-x-13-x-------------------------------------------------------------| (x10)
A|-9-x-14-x-13-x-------------------------------------------------------------|
E|-7-x-12-x-11 x-------------------------------------------------------------|

[Verse 2]
You said, you used it all up in your youth
Don't you blame it on the dinosaurs
It wasn't them who knocked the sense out of you
Blame it on freedom, space, and open doors

And now your mother's gonna be so sad
She only wants you to do good
And your father's gonna kick your ass
You deserve it, I think he should

e|---------------------------------------------------------------------------|
B|---------------------------------------------------------------------------|
G|---------13-x-8/9-x--------------------------------------------------------|
D|-9-x-7-x-13-x-8/9-x--------------------------------------------------------| (x8)
A|-9-x-7-x-11-x-6/7-x--------------------------------------------------------|
E|-7-x-5-x-------------------------------------------------------------------|

[Chorus]
I'm not pulling out your shark tooth
You got stuck up in the first place
And now you're swimming, ain't you, baby?
You keep blaming me for settling
I'm feeling good
It's time to stop pointing fingers
It's time to buck up, Billy, be a man

e|---------------------------------------------------------------------------|
B|---------------------------------------------------------------------------|
G|-13-x-9-x-13-x-9-x-13------------------------------------------------------|
D|-13-x-9-x-13-x-9-x-13---------9-x-4-x-2------------------------------------| 2:35 onwards. Here are the 2
A|-11-x-7-x-11-x-7-x-11---------9-x-4-x-2------------------------------------| parts to the bridge - listen
E|------------------------------7-x-2-x-0------------------------------------| for strumming.

[Bridge]

e|---------------------------------------------------------------------------|
B|---------------------------------------------------------------------------|
G|---------------------------------------------------------------------------|
D|-9-x-14-x-13-x-------------------------------------------------------------| (x6)
A|-9-x-14-x-13-x----------- -------------------------------------------------|
E|-7-x-12-x-11 x-------------------------------------------------------------|

[Outro]
Billy, you were brought up to
Batter me then bring me home
It's time for you to punch the clock
It's time for you to be grown

            
Submit corrections


        Sharktooth lessons Hard to play? Try these video lessons and learn fast Sharktooth lessons
        
↑ Back to top | Tablatures and chords for acoustic guitar and electric guitar, ukulele, drums are parodies/interpretations of the original songs. You may use it for private study, scholarship, research or language learning purposes only