» » »

Bully - Running Tabs

Artists:  A B C D E F G H I J K L M N O P Q R S T U V W X Y Z # 

Running Tabs

(ver. 1) Click to play this song!
Bully
 Rating:
4.3/5 (19 votes)

 Running lessons Tabs too difficult? Try these video lessons and learn fast
 
                Intro] 

e|---------------------------------------------------------------------------|
B|---------------------------------------------------------------------------|
G|-11121---11121-------------------------------------------------------------|
D|------2-------20-----------------------------------------------------------| (x2)
A|----------------20---------------------------------------------------------|
E|---------------------------------------------------------------------------|

[Verse 1]
Been six months since you turned thirty
Quit smokin' and cleaned up the worry
I procrastinate, manic compulsive
Distract myself with trips to Chicago and

[Pre-Chorus]
I struggle with being back in town
Especially when you're around and
I struggle with being back in town
It's hard to do when you're not around and

e|---------------------------------------------------------------------------|
B|---------------------------------------------------------------------------|
G|999---9--------999---9-x---11----------------------------------------------|
D|999-9-9-x-7----999-9-9-x-7-11----------------------------------------------| (x2)
A|777-9-7-x-7----777-9-7-x-7-9-----------------------------------------------|
E|----7---x-5--------7-----5-------------------------------------------------|

[Chorus]
You say I'm running
But I don't care
I'll admit it
I get anxious too

e|---------------------------------------------------------------------------|
B|---------------------------------------------------------------------------|
G|-11121---11121-------------------------------------------------------------|
D|------2-------20-----------------------------------------------------------| (x2)
A|----------------20---------------------------------------------------------|
E|---------------------------------------------------------------------------|

[Verse 2]
Been two weeks since you lost the feeling
I guess now starts the process of healing and
You must be losing your mind
Stuck lying there with nothing but time

[Pre-Chorus]
I struggle with being back in town
It kills me to hear news like this and
I struggle with being back in town
It's too much time to think and sitting

e|---------------------------------------------------------------------------|
B|---------------------------------------------------------------------------|
G|999---9--------999---9-x---11----------------------------------------------|
D|999-9-9-x-7----999-9-9-x-7-11----------------------------------------------| (x2)
A|777-9-7-x-7----777-9-7-x-7-9-----------------------------------------------|
E|----7---x-5--------7-----5-------------------------------------------------|

[Chorus]
You say I'm running
But I don't care
I'll admit it
I get anxious too
Just like you

e|---------------------------------------------------------------------------|
B|---------------------------------------------------------------------------|
G|-11121---11121-------------------------------------------------------------|
D|------2-------20-----------------------------------------------------------| (x4)
A|----------------20---------------------------------------------------------|
E|---------------------------------------------------------------------------|

[Bridge]
I worry, I worry, I worry about you
I worry, I worry, I worry, I do
I worry, I worry, I worry about you
I worry, I worry, I worry, I do

[Pre-Chorus]
What's it about being back in town
That always makes me feel like this? And
I'm done with being back in town
It's a solid, steady existence and

e|---------------------------------------------------------------------------|
B|---------------------------------------------------------------------------|
G|999---9--------999---9-x---11----------------------------------------------|
D|999-9-9-x-7----999-9-9-x-7-11----------------------------------------------| (x2)
A|777-9-7-x-7----777-9-7-x-7-9-----------------------------------------------|
E|----7---x-5--------7-----5-------------------------------------------------|

[Chorus]
You say I'm running
But I don't care
I'll admit it
I get anxious too
Just like you

[Outro] Start playing just after "I get anxious too"

e|---------------------------------------------------------------------------|
B|---------------------------------------------------------------------------|
G|-11121---11121-------------------------------------------------------------|
D|------2-------20-----------------------------------------------------------| (x4)
A|----------------20---------------------------------------------------------|
E|---------------------------------------------------------------------------|

            
Submit corrections


        Running lessons Hard to play? Try these video lessons and learn fast Running lessons
        
↑ Back to top | Tablatures and chords for acoustic guitar and electric guitar, ukulele, drums are parodies/interpretations of the original songs. You may use it for private study, scholarship, research or language learning purposes only