» » »

Bullet For My Valentine - Say Goodnight Tabs

Artists:  A B C D E F G H I J K L M N O P Q R S T U V W X Y Z # 

Say Goodnight Tabs

(ver. 1) Click to play this song!
Bullet For My Valentine
 Rating:
4/5 (4 votes)


 Say Goodnight lessons Tabs too difficult? Try these video lessons and learn fast
 
                BULLET FOR MY VALENTINE - SAY GOODNIGHT
D STANDARD TUNING (DGCFAD)

another tab...
well there wasnt a tab for this on here, for the electric version of the song 
atleast. there was a guitar pro tab, but seeing as i don't have that, it wasnt 
a great deal of help..
so i figured i'd try and work it out while having my lunch. and i did. 
its all here, all the solo's and tricky bits and whatever. 
so yerr go for it. 

legend: 

| b    bend 
| r    return 
| /    slide up 
| \    slide down 
| h    hammer on 
| p    pull off 
| *    pinch harmonic 
| ~    tremolo 
| ...  palm muted 
| x    muted note 
| (n)  optional note 
| T    tapped note
| >    accented note (play strongly)
| [n]  natural harmonic


INTRO:
 - clean

|------------------------------------|
|------------------------------------|
|---------0-------------0-------0----|
|-----4-----4---4---------4---4---4--|
|---7---7-----7-------7-----5--------|
|-0-----------------0----------------|


INTRO SOLO PT 1:
 - distortion, dipped in reverb, bridge pickup

|------------------------------------------------------------------------------|
|------------------------------------------------------------------------------|
|-/4-----4-5-4-------7------------------------------------------4-5-2-4-0-2----|
|------7-------7-5-4---5---4h5-7-5-4-5-4-0-/2---0h2-4-2-4-5-4-5-------------4--|
|------------------------------------------------------------------------------|
|------------------------------------------------------------------------------|


INTRO SOLO PT 2:
 - distortion, dipped in reverb, neck pickup

|-15-14-----------15-14-----------15-------15-17b19~-15-14-15-14h17p14------|
|-------15--------------15-----------19-15-----------------------------15~--|
|----------16--------------16-----------------------------------------------|
|-------------17--------------14--------------------------------------------|
|---------------------------------------------------------------------------|
|---------------------------------------------------------------------------|

|-15-14-----------15-14-----------15-------15-17b19~-15-14-15-17-15-14-14h15p14------|
|-------15--------------15-----------19-15--------------------------------------17~--|
|----------16--------------16--------------------------------------------------------|
|-------------17--------------14-----------------------------------------------------|
|------------------------------------------------------------------------------------|
|------------------------------------------------------------------------------------|


VERSE:
 - clean

|-----------0--------|-------------------|
|-------0-----0------|-------------------|
|---------0-----0----|-------------------|
|--------------------|----4-5---4-5-4----|
|----7------------2--|--3-----5-------5--|
|--0-----------------|-------------------| 


VERSE ENDING:
 - clean, with distortion for the harmonics
 - play on the third time of the verse

|------------------|
|---3---------[7]--|
|---0-----[5]------|
|---2--------------|
|---3--------------|
|------------------|


CHORUS:
 - clean

|---------0---------------0-------------------------------------0------------| 
|-----3-----3--3------------3--------------------5--0-------------3----------| 
|-------0---------------0-------------------4--0------0-------0--------------| 
|---2---------------------------4-5-4---------------------------------4-5-4--| 
|-3--------------3----3-------5-----------7-----------------3-------5--------| 
|---------------------------------------0---------------0--------------------| 


CHORUS ENDING:
 - clean, then distortion for the harmonics

|------[5]-[7]----------|
|-5----------------[7]--|
|-4------------[5]------|
|-0---------------------|
|-7---------------------|
|-0---------------------|


MIDDLE SOLO:
 - distortion, bridge pickup

|-12----------------12-14b15-12----12------------------|
|-15b17r15b17~~-/15-------------15----15b17~--12~------|
|---------------------------------------------12~--12~-|
|------------------------------------------------------|
|------------------------------------------------------|
|------------------------------------------------------|

|------12-17-12-15-12----12-17-12-15-12----12-17-12--|
|-/15-----------------15----------------15-----------|
|----------------------------------------------------|
|----------------------------------------------------|
|----------------------------------------------------|
|----------------------------------------------------|

|----------------------------------------------12-15p14-/15-14-15--/17-15-17~--|
|-------------------------------------12-13-15-----------17-15-17---19-17-19~--|
|----------------------------12-14-16------------------------------------------|
|-------------------12-14-16---------------------------------------------------|
|----------12-14-15------------------------------------------------------------|
|-12-14-15---------------------------------------------------------------------|

|-14-15-17-15-17-19-17-19-20-19-20-22-22b24~-20-19-15-19-15-14-12~~--|
|--------------------------------------------------------------------|
|--------------------------------------------------------------------|
|--------------------------------------------------------------------|
|--------------------------------------------------------------------|
|--------------------------------------------------------------------|


VERSE ADDITION
 - plays on the second verse

|-------------------------------------|
|-------------------------------------|
|-------------------------------------|
|-2t5t12-2t5t14-2t5t12-2t5t14-2t5p2~--|
|-------------------------------------|
|-------------------------------------|


BREAKDOWN:
 - distortion

|----------------------------------------|
|----------------------------------------|
|-------------------5-5-5---------7-7-7--|
|-----------------2-5-5-5--5-5-5--7-7-7--|
|-2-2-2-2-2-2-2-2-2-3-3-3--5-5-5--5-5-5--|
|-0-0-0-0-0-0-0-0-0--------3-3-3---------|


FINAL, MAIN THEME:

|--------------------------------------|
|--------------------------------------|
|-----------------------------------7--|
|--------------------------------5--7--|
|-2-2--5h7p5h7--2-2--5h7p5-0-3~--5--5--|
|-0-0-----------0-0--------------3-----|

|------------------------------------------------------------|
|------------------------------------------------------------|
|------------------------------------------------------------|
|------------------------------2h5p2-------------------------|
|-2-2--5-5h7--2-2--5h7p5-0-3~--------h3-----5h8p5p0-3h7p3p0--|
|-0-0---------0-0-----------------------0-0------------------|


OUTRO SOLO:

|--------------------------12-14-17b19r17-------|
|-----------------12-13-15----------------15~~--|
|--------11-12-14-------------------------------|
|--12-14----------------------------------------|
|-----------------------------------------------|
|-----------------------------------------------|

|--------------------------12-14-17b19r17--17b19-17~--|
|-----------------12-13-15----------------------------|
|--------11-12-14-------------------------------------|
|--12-14----------------------------------------------|
|-----------------------------------------------------|
|-----------------------------------------------------|

|--------------------------12-14-17b19r17-------|
|-----------------12-13-15----------------15~~--|
|--------11-12-14-------------------------------|
|--12-14----------------------------------------|
|-----------------------------------------------|
|-----------------------------------------------|

|--------------------------12-14-17b19r17--17b19-17~-15~-|
|-----------------12-13-15-------------------------------|
|--------11-12-14----------------------------------------|
|--12-14-------------------------------------------------|
|--------------------------------------------------------|
|--------------------------------------------------------|


MAIN THEME ALTERNATE:

|------------------------------------------------------------------|
|------------------------------------------------------------------|
|------------------------------------------------------------------|
|---------------------------------------2h5p2----------------------|
|-2-2-2-2-2-2-2-2-2-2-2-2-2-2-2-2-2-2-2-------h3--5h8p5p0-3h7p3p0--|
|-0-0-0-0-0-0-0-0-0-0-0-0-0-0-0-0-0-0-0----------------------------|


FINAL OUTRO CHORDS:

|-------------------------|
|-------------------------|
|-------------------------|
|-------------------------|
|-2-2-2-2--2-2-2-2-2-2-2--|
|-0-0-0-0--0-0-0-0-0-0-0--|


SONG ORDER:
____________

intro              x 4
intro solo pt 1    x 1
intro solo pt 2    x 1
verse              x 8
chorus             x 1
chorus ending      x 1
middle solo        x 1
verse              x 4
verse addition     x 4
chorus             x 1
breakdown          x 1
main theme         x 4
outro solo         x 1
main theme         x 4
main theme altrnt. x 4
final chords       x 1

that's it. go nuts. rate, comment, whatever really..
            
Submit corrections



        Say Goodnight lessons Hard to play? Try these video lessons and learn fast Say Goodnight lessons
        
↑ Back to top | Tablatures and chords for acoustic guitar and electric guitar, ukulele, drums are parodies/interpretations of the original songs. You may use it for private study, scholarship, research or language learning purposes only