Home » B » Bullet For My Valentine »

Bullet For My Valentine - A Place Where You Belong Tabs

Artists:  A B C D E F G H I J K L M N O P Q R S T U V W X Y Z # 

A Place Where You Belong Tabs

(ver. 1) Click to play this song!
Bullet For My Valentine
 Rating:
4/5 (4 votes)
                (Intro)
			     A Place Where You Belong - Bullet For My Valentine

Tuning:Drop C

D|-----0------0----0--------0-----0----0--------0------0----0------0---------|
A|---4--4-4----4----4-----4--4-4---4----4-----4--4-4----4----4---4--4-4------|
F|--4-4--4---4----4------4-4--4--4----4------4-4--4---4----4----4-4--4-------|
c|-----------------------------------2---------------------------------------|
G|-4--------4----2------4-------4-----------0--------0----2----0-------2~----|
C|---------------------------------------------------------------------------|

Guitar 1:(00:15)
D|---------------------------------------------------------------------------|
A|---------------------------------------------------------------------------|
F|-6-6-6-6-6~--222--6-6-6-6-6~--999--2222222222222222-4444444444444444-------|  x2
c|-6-6-6-6-6~--222--6-6-6-6-6~--999--2222222222222222-4444444444444444-------|
G|-4-4-4-4-4~--000--4-4-4-4-4~--777--0000000000000000-2222222222222222-------|
C|---------------------------------------------------------------------------|
   . .   .          . .   .

Guitar 2:(00:15)
D|-----0-------0---0------------------------4444444422222222-----------------|
A|---4--4-4-----4---4------4445554445552222-0000000000000000-----------------|
F|-44-4--4---44--44--------4444444444444444----------------------------------|  x2
c|-------------------x2------------------------------------------------------|
G|---------------------------------------------------------------------------|
C|---------------------------------------------------------------------------|
   .. .      ..  ..


************************************

| /   slide up
| \   slide down
| h   hammer-on
| p   pull-off
| ~   vibrato
| +   harmonic
| x   Mute note
| b   Bend
| pb  Pre-bend
| br  Bend release
| pbr Pre-bend release
| brb Bend release bend

************************************
            
Submit corrections

↑ Back to top | Tablatures and chords for acoustic guitar and electric guitar, ukulele, drums are parodies/interpretations of the original songs. You may use it for private study, scholarship, research or language learning purposes only