Home » B » Bullet For My Valentine »

Bullet For My Valentine - No Way Out Tabs

Artists:  A B C D E F G H I J K L M N O P Q R S T U V W X Y Z # 

No Way Out Tabs

(ver. 1) Click to play this song!
Bullet For My Valentine
 Rating:
5/5 (2 votes)
                 1. Main/Intro Riff x8
 D|---------------------------------------------------------------------------|
 A|---------------------------------------------------------------------------|
 F|---------------------------------------------------------------------------|
 C|---------------------------------------------------------------------------|
 G|---------------------------------------------------------------------------|
 C|15-0-0-12-0-0-14-0-0-10-0-0-12-14------------------------------------------|

 2.Verse Riff 1 x2 - Listen to song for timing of low chugs and palm muting.
 D|---------------------------------------------------------------------------|
 A|---------------------------------------------------------------------------|
 F|---------------------------------------------------------------------------|
 C|-------------------5-7-5-3-5-3-5-7------------3-2-3-5-3-2------------------|
 G|0-000---00---000-------------------0-000-0-00-3-2-3-5-3-2------------------|
 C|0-000-0-00-0-000-0-----------------0-000-0-00-3-2-3-5-3-2------------------|


 3.Verse Lead x4 - Listen to song for timing and number of notes.
 D|---------------------------------------------------------------------------|
 A|5-bend-to-6----------------------------------------------------------------|
 F|---------------------------------------------------------------------------|
 C|---------------------------------------------------------------------------|
 G|---------------------------------------------------------------------------|
 C|---------------------------------------------------------------------------|

 4.Pre-Chorus x1 (Roll back volume pot for less gain)
 D|----0-----3----------------------------------------------------------------|
 A|---------------------------------------------------------------------------|
 F|2-2---5-5------------------------------------------------------------------|
 C|---------------------------------------------------------------------------|
 G|---------------------------------------------------------------------------|
 C|---------------------------------------------------------------------------|

 5. Chorus Guitar 1 x14 (Lead)
 D|---------------------------------------------------------------------------|
 A|---------------------------------------------------------------------------|
 F|---------------------------------------------------------------------------|
 C|15-0-0-12-0-0-14-0-0-10-0-0-12-14------------------------------------------|
 G|---------------------------------------------------------------------------|
 C|---------------------------------------------------------------------------|

 6. Chorus Guitar 2 x14 (Lead Harmony)
 D|---------------------------------------------------------------------------|
 A|---------------------------------------------------------------------------|
 F|---------------------------------------------------------------------------|
 C|19-0-0-15-0-0-17-0-0-14-0-0-15-17------------------------------------------|
 G|---------------------------------------------------------------------------|
 C|---------------------------------------------------------------------------|

 7. Chorus Guitar 3 (Rhythm)- Listen for timing and palm muting.
 D|--------------------------------------------------------------------------------------------------|
 A|--------------------------------------------------------------------------------------------------|
 F|--------------------------------------------------------------------------------------------------|
 C|3-3-3-3-3-3-5-5-5-5-5-5-0-----0-----0-----0-----3-3-3-3-3-3-5-5-5-5-5-5-0-----0-----0-----0-------|
 G|1-1-1-1-1-1-3-3-3-3-3-3-0-----0-----0-----0-----1-1-1-1-1-1-3-3-3-3-3-3-0-----0-----0-----0-------|
 C|------------------------0-0-0-0-0-0-0-0-0-0-0-0-------------------------0-0-0-0-0-0-0-0-0-0-0-0---|

 8. Chorus Guitar 3 (Continued)
 D|---------------------------------------------------------------------------|
 A|---------------------------------------------------------------------------|
 F|---------------------------------------------------------------------------|
 C|3-3-3-3-3-3-5-5-5-5-5-5-2-2-2-2-2-2-3-3-3-3-3-3-3-3-3-3-3-3-5-5-5-5-5-5----|
 G|1-1-1-1-1-1-3-3-3-3-3-3-0-0-0-0-0-0-1-1-1-1-1-1-1-1-1-1-1-1-3-3-3-3-3-3----|
 C|---------------------------------------------------------------------------|

 9. Main Riff 

 10. Verse Riff 1

 11. Verse Lead 

 12. Pre-Chorus 

 13. Chorus

 14. Clean Section (Clean setting, use chorus and/ or delay at your discretion)
 D|---------------------------------------------------------------------------|
 A|----6-----5-----3-----5----------------------------------------------------|
 F|--7-----5-----3-----5------------------------------------------------------|
 C|---------------------------------------------------------------------------|
 G|5-----3-----1-----3--------------------------------------------------------|
 C|---------------------------------------------------------------------------|

 15. Bridge Lead x1(This is just one of the harmonies) 
 D|---------------------------------------------------------------------------|
 A|---------------------------------------------------------------------------|
 F|14-12-14-15-7-9-10-9-7-9-10-12-10-9-7-6------------------------------------|
 C|---------------------------------------------------------------------------|
 G|---------------------------------------------------------------------------|
 C|---------------------------------------------------------------------------|

 16. Pre-Solo Riff - The palm muting is crucial in getting this so I'll show them directly. 
 The stars on the 'PM' line show which notes are palm muted. 
 D|-----------------------------------------------------------8---------------|
 A|--------------------------8----------------------------------6-------------|
 F|------7--------10-9---9-----7-----------7-------10-9---9-------9-7---------|
 C|0-7-7---7-7-7-------7---7-----7---0-7-7---7-7-7------7---7-----------------|
 G|--------------------------------8------------------------------------------|
 C|---------------------------------------------------------------------------|
PM|----*---*---*-------*---*-------------*---*---*------*---*-----------------|
 
17. Solo (Haven't had time to figure it out correctly yet, will update.)

 18. Solo Rhythm Guitar - Listen for palm muting and timing.
 D|------------------------------------------------------------------------------------------------|
 A|------------------------------------------------------------------------------------------------|
 F|------------------------------------------------------------------------------------------------|
 C|-------------------------------------------------------------------------------------3-2-3-5-3-2|
 G|------------0--------------0------------------------0--------------0--------------0--3-2-3-5-3-2|
 C|0-0-0-0-0-0-0--0-0-0-0-0-0-0--0-0--0-0--0-0-0-0-0-0-0--0-0-0-0-0-0-0--0-0-0-0-0-0-0--3-2-3-5-3-2|

 19. Pre-Chorus Variation (Roll back volume pot for less gain)
 D|----0-----1-----0-----3----------------------------------------------------|
 A|---------------------------------------------------------------------------|
 F|2-2---3-3---2-2---5-5------------------------------------------------------|
 C|---------------------------------------------------------------------------|
 G|---------------------------------------------------------------------------|
 C|---------------------------------------------------------------------------|

 20. Chorus
 
 21. Main Riff x6 

 22. Outro 
 D|---------------------------------------------------------------------------|
 A|---------------------------------------------------------------------------|
 F|---------------------------------------------------------------------------|
 C|0---------0----------------5-7-5-3-5-3-5-7-0-------------------------------|
 G|0---------0--------------------------------0-------------------------------|
 C|0-0-0-0-0-0-0-0-0--0-0-0-0-----------------0-------------------------------|            
Submit corrections

↑ Back to top | Tablatures and chords for acoustic guitar and electric guitar, ukulele, drums are parodies/interpretations of the original songs. You may use it for private study, scholarship, research or language learning purposes only