Home » B » Bullet For My Valentine »

Bullet For My Valentine - My Fist Your Mouth Her Scars Tabs

Artists:  A B C D E F G H I J K L M N O P Q R S T U V W X Y Z # 

My Fist Your Mouth Her Scars Tabs

(ver. 2) Click to play this song!
Bullet For My Valentine
 Rating:
4/5 (4 votes)
                -------------------------------------------------------------------------------
        My Fist, Your Mouth, Her Scars - Bullet For My Valentine
-------------------------------------------------------------------------------

Tuning: Drop C

 Intro/Chorus
|-----------------------------------------------------------------------|
|-----------------------------------------------------------------------|
|-----------------------------------------------------------------------| x8
|-------------------------------------------10-8-7----7-----------------|
|-0-0--8-8--0-0-0-0--7-7--0-0-0-0--8-8--0-0---------10---8--------------|
|-0-0-------0-0-0-0-------0-0-0-0-------0-0-----------------------------|

 Verse
|-----------------------------------------------------------------------|
|-----------------------------------------------------------------------|
|------------------------------10--7------------------------------------|
|-0-----------------10--8--7---10--7--------------------10--8--7--1--0--|
|-0--0-0-0-0-0-0-0--10--8--7----8--5---0-0-0-0-0-0-0-0--10--8--7--1--0--|
|-0--0-0-0-0-0-0-0--10--8--7-----------0-0-0-0-0-0-0-0--10--8--7--1--0--|

|-----------------------------------------------------------------------|
|-----------------------------------------------------------------------|
|----------------------------10---7---7---8---8---5---5-----------------|
|------------------10--8--7--10---7---7---8---8---5---5---3--1--0-------|
|-0-0-0-0-0-0-0-0--10--8--7---8---5---5---6---6---3---3---3--1--0-------|
|-0-0-0-0-0-0-0-0--10--8--7-------------------------------3--1--0-------|

|-----------------------------------------------------------------------|
|-----------------------------------------------------------------------|
|-----------------------------10--7-------------------------------------|
|------------------10--8--7---10--7--------------------10--8--7--1--0---|
|-0-0-0-0-0-0-0-0--10--8--7----8--5---0-0-0-0-0-0-0-0--10--8--7--1--0---|
|-0-0-0-0-0-0-0-0--10--8--7-----------0-0-0-0-0-0-0-0--10--8--7--1--0---|

|-----------------------------------------------------------------------|
|-----------------------------------------------------------------------|
|----------------------------10---7---7---8---8---5---5-----------------|
|------------------10--8--7--10---7---7---8---8---5---5---3--1--0-------|
|-0-0-0-0-0-0-0-0--10--8--7---8---5---5---6---6---3---3---3--1--0-------|
|-0-0-0-0-0-0-0-0--10--8--7-------------------------------3--1--0-------|

 Bridge
|-----------------------------------------------------------------------|
|-----------------------------------------------------------------------|
|-----------------------------------------------------------------------|
|-----------------------------------------------------------------------|
|-8-7-8-10-8-7-8---8-7-8---8-7-8---8-7-8-10-8-7-8---8-7-8---8-10-7------|
|----------------8-------7-------0----------------8-------7-------------|

 Chorus
|-----------------------------------------------------------------------|
|-----------------------------------------------------------------------|
|-----------------------------------------------------------------------| x4
|-------------------------------------------10-8-7----7-----------------|
|-0-0--8-8--0-0-0-0--7-7--0-0-0-0--8-8--0-0---------10---8--------------|
|-0-0-------0-0-0-0-------0-0-0-0-------0-0-----------------------------|

 Verse
|-----------------------------------------------------------------------|
|-----------------------------------------------------------------------|
|------------------------------10--7------------------------------------|
|-0-----------------10--8--7---10--7--------------------10--8--7--1--0--|
|-0--0-0-0-0-0-0-0--10--8--7----8--5---0-0-0-0-0-0-0-0--10--8--7--1--0--|
|-0--0-0-0-0-0-0-0--10--8--7-----------0-0-0-0-0-0-0-0--10--8--7--1--0--|

|-----------------------------------------------------------------------|
|-----------------------------------------------------------------------|
|----------------------------10---7---7---8---8---5---5-----------------|
|------------------10--8--7--10---7---7---8---8---5---5---3--1--0-------|
|-0-0-0-0-0-0-0-0--10--8--7---8---5---5---6---6---3---3---3--1--0-------|
|-0-0-0-0-0-0-0-0--10--8--7-------------------------------3--1--0-------|

|-----------------------------------------------------------------------|
|-----------------------------------------------------------------------|
|-----------------------------10--7-------------------------------------|
|------------------10--8--7---10--7--------------------10--8--7--1--0---|
|-0-0-0-0-0-0-0-0--10--8--7----8--5---0-0-0-0-0-0-0-0--10--8--7--1--0---|
|-0-0-0-0-0-0-0-0--10--8--7-----------0-0-0-0-0-0-0-0--10--8--7--1--0---|

|-----------------------------------------------------------------------|
|-----------------------------------------------------------------------|
|----------------------------10---7---7---8---8---5---5-----------------|
|------------------10--8--7--10---7---7---8---8---5---5---3--1--0-------|
|-0-0-0-0-0-0-0-0--10--8--7---8---5---5---6---6---3---3---3--1--0-------|
|-0-0-0-0-0-0-0-0--10--8--7-------------------------------3--1--0-------|

 Bridge
|-----------------------------------------------------------------------|
|-----------------------------------------------------------------------|
|-----------------------------------------------------------------------|
|-----------------------------------------------------------------------|
|-8-7-8-10-8-7-8---8-7-8---8-7-8---8-7-8-10-8-7-8---8-7-8---8-10-7------|
|----------------8-------7-------0----------------8-------7-------------|

 Chorus
|-----------------------------------------------------------------------|
|-----------------------------------------------------------------------|
|-----------------------------------------------------------------------| x4
|-------------------------------------------10-8-7----7-----------------|
|-0-0--8-8--0-0-0-0--7-7--0-0-0-0--8-8--0-0---------10---8--------------|
|-0-0-------0-0-0-0-------0-0-0-0-------0-0-----------------------------|

 Solo
|------8------10------8------10--------8------10------8------15---13----|
|-----------------------------------------------------------------------|
|-9h10---9h10----9h10---9h10------9h10---9h10----9h10---9h10------------|
|-----------------------------------------------------------------------|
|-----------------------------------------------------------------------|
|-----------------------------------------------------------------------|

|-----------------------------------------------------------------------|
|-----------------------------------------------------------------------|
|-14-12-----------------------------------------------------------------|
|-------15-14-15-10-12--------------------------------------------------|
|-----------------------------------------------------------------------|
|-----------------------------------------------------------------------|

|------8------10------12-----15--------8------10------8------15---13----|
|-----------------------------------------------------------------------|
|-9h10---9h10----9h10---9h10------9h10---9h10----9h10---9h10------------|
|-----------------------------------------------------------------------|
|-----------------------------------------------------------------------|
|-----------------------------------------------------------------------|

|-----------------------------------------------------------------------|
|-----------------------------------------------------------------------|
|-14-12-----------------------------------------------------------------|
|-------15-14-15-10-12--------------------------------------------------|
|-----------------------------------------------------------------------|
|-----------------------------------------------------------------------|

|-----------------------------------------------------------------------|
|-----------------------------------------------------------------------|
|-----------------------------------------------------------------------|
|-----------------------------------------------------8---7-------------|
|---8-7-8-10-8-7-8---8-7-8---8-7-8---8-7-8-10-8-7-8---8---7-------------|
|-0----------------8-------7-------0------------------8---7-------------|

 Verse
|-----------------------------------------------------------------------|
|-----------------------------------------------------------------------|
|------------------------------10--7------------------------------------|
|-0-----------------10--8--7---10--7--------------------10--8--7--1--0--|
|-0--0-0-0-0-0-0-0--10--8--7----8--5---0-0-0-0-0-0-0-0--10--8--7--1--0--|
|-0--0-0-0-0-0-0-0--10--8--7-----------0-0-0-0-0-0-0-0--10--8--7--1--0--|

|-----------------------------------------------------------------------|
|-----------------------------------------------------------------------|
|----------------------------10---7---7---8---8---5---5-----------------|
|------------------10--8--7--10---7---7---8---8---5---5---3--1--0-------|
|-0-0-0-0-0-0-0-0--10--8--7---8---5---5---6---6---3---3---3--1--0-------|
|-0-0-0-0-0-0-0-0--10--8--7-------------------------------3--1--0-------|

|-----------------------------------------------------------------------|
|-----------------------------------------------------------------------|
|-----------------------------10--7-------------------------------------|
|------------------10--8--7---10--7--------------------10--8--7--1--0---|
|-0-0-0-0-0-0-0-0--10--8--7----8--5---0-0-0-0-0-0-0-0--10--8--7--1--0---|
|-0-0-0-0-0-0-0-0--10--8--7-----------0-0-0-0-0-0-0-0--10--8--7--1--0---|

|-----------------------------------------------------------------------|
|-----------------------------------------------------------------------|
|----------------------------10---7---7---8---8---5---5-----------------|
|------------------10--8--7--10---7---7---8---8---5---5---3--1--0-------|
|-0-0-0-0-0-0-0-0--10--8--7---8---5---5---6---6---3---3---3--1--0-------|
|-0-0-0-0-0-0-0-0--10--8--7-------------------------------3--1--0-------|

 Bridge
|-----------------------------------------------------------------------|
|-----------------------------------------------------------------------|
|-----------------------------------------------------------------------|
|----------------8-------7-------0----------------8-------7-------------|
|-8-7-8-10-8-7-8-8-8-7-8-7-8-7-8-0-8-7-8-10-8-7-8-8-8-7-8-7-8-10-7------|
|----------------8-------7-------0----------------8-------7-------------|

 Chorus
|-----------------------------------------------------------------------|
|-----------------------------------------------------------------------|
|-----------------------------------------------------------------------| x4
|-------------------------------------------10-8-7----7-----------------|
|-0-0--8-8--0-0-0-0--7-7--0-0-0-0--8-8--0-0---------10---8--------------|
|-0-0-------0-0-0-0-------0-0-0-0-------0-0-----------------------------|

 Outro
|-----------------------------------------------------------------------|
|-----------------------------------------------------------------------|
|-----------------------------------------------------------------------|
|-------------------------------------------10-8-7----7-----------------|
|-0-0--8-8--0-0-0-0--7-7--0-0-0-0--8-8--0-0---------10---8--------------|
|-0-0-------0-0-0-0-------0-0-0-0-------0-0-----------------------------|

|-----------------------------------------------------------------------|
|-----------------------------------------------------------------------|
|-----------------------------------------------------------------------|
|-------------------------------------------10-8-7----7--0--------------|
|-0-0--8-8--0-0-0-0--7-7--0-0-0-0--8-8--0-0---------10---0--------------|
|-0-0-------0-0-0-0-------0-0-0-0-------0-0--------------0--------------|


| /  slide up
| \  slide down
| h  hammer-on
| p  pull-off
| ~  vibrato
| +  harmonic
| x  Mute note
===============================================================================
            
Submit corrections

↑ Back to top | Tablatures and chords for acoustic guitar and electric guitar, ukulele, drums are parodies/interpretations of the original songs. You may use it for private study, scholarship, research or language learning purposes only