Home » B » Bullet For My Valentine »

Bullet For My Valentine - Intro Tabs

Artists:  A B C D E F G H I J K L M N O P Q R S T U V W X Y Z # 

Intro Tabs

(ver. 1) Click to play this song!
Bullet For My Valentine
 Rating:
4/5 (4 votes)
                Hi, this is my first tab so if it looks a little messy now you know why. The reason i 
this tab was because most of the other versions need some tuning but when i play along 
sounds exactly the same so here goes.
Tuning : EADGBE

Main Riff at 0:43

|--------------------------------------------------------------|
|--------------------------------------------------------------|
|--------------------------------------------------------------|
|--------------------------------------------------------------|   X4
|----------3-1-3-------------313-------------------------------|
|1-4-3-4-----------1-4-3-4------4-4-3-4---4-3-1?-1-4-3-4--4-6-4|


Guitar 2 at 1:07

|--------8-6-8-----8-6-8----------------------------------|
|9-8-9--------9-8-9-----9-9-8-9---9-8-4---8-9-8-9---9-11-9|
|---------------------------------------------------------|
|---------------------------------------------------------|   X2
|---------------------------------------------------------|
|---------------------------------------------------------|


Solo at 1:37 (Guitar 1/2 play Main Riff X3)

|-1-3-4-3---1-3-4-1-3-4-------------|
|1---------------------4-4--6-4-6~~\|
|-----------------------------------|
|-----------------------------------|     X2
|-----------------------------------|
|-----------------------------------|


|20~\----|
|--------|
|--------|
|--------|
|--------|
|--------|

So Thats it. Hope you enjoy playing this song as much as i do =D.
            
Submit corrections

↑ Back to top | Tablatures and chords for acoustic guitar and electric guitar, ukulele, drums are parodies/interpretations of the original songs. You may use it for private study, scholarship, research or language learning purposes only