Home » B » Bullet For My Valentine »

Bullet For My Valentine - Her Voice Resides Tabs

Artists:  A B C D E F G H I J K L M N O P Q R S T U V W X Y Z # 

Her Voice Resides Tabs

(ver. 1) Click to play this song!
Bullet For My Valentine
 Rating:
4/5 (4 votes)
                Her Voice Resides by Bullet for my Valentine


Tuning: Drop C (C G C F A D)

Legend
\  = slide
~  = let ring
b  = bend
br = bend and release
h  = hammer on
p  = pull off
x  = heavily muted note
PM = Palm Mute
x\ = pick slide
*  = pinch harmonic
t  = tap

Intro x 3 (first time only with the unmuted chord)

D-----------------------------------------------------------------------|
A----3------------------------------------------------------------------|
F----2------------------------------------------------------------------|
C----0---------------------------------7-5------------------------------|
G----0-0-0-0-0-0-0-0-0-0-0-0-0-0-0-------------7-8---8-7-8--12-10-12----|
C----0-0-0-0-0-0-0-0-0-0-0-0-0-0-0-0-0-----0-0-----0-8-7-8--12-10-12----|
       pm.............................     ...     .

then
D-------------------------------------------------------------------------|
A-------------------------------------------------------------------------|
F----------------------------------------------------------5~~~~----------|
C--------------------------------------7-5-----------8~~~~-5~~~~----------|
G------0-0-0-0-0-0-0-0-0-0-0-0-0-0-------------7-8---8~~~~-3~~~~----x\----|
C------0-0-0-0-0-0-0-0-0-0-0-0-0-0-0-0-----0-0-----0-8~~~~----------x\----|
       pm.............................     ...     .

Verse ( x 2)

D---------------------------------------------------------|
A---------------------------------------------------------|
F---------------------------------------------------------|
C----0---------------------0-------------7-7-5-5-8-5-5----|
G----0-----------0-0-7-8-7-0------------------------------|
C----0-0-0-0-0-0-0-0-------0-0-0-0-0-0-0------------------|
       pm.......             ...........

D----------------------------------------------------------------|
A----------------------------------------------------------------|
F----------------------------------------14-14-12-12-15-12-12----|
C----0---------------------0-------------------------------------|
G----0-----------0-0-7-8-7-0-------------------------------------|
C----0-0-0-0-0-0-0-0-------0-0-0-0-0-0-0-------------------------|
       pm.......             ...........


Chorus

D------------------------------------------------------------|
A------------------------------------------------------------|
F----3-3-3--5-5-5---------10--9----3-3-3--5-5-5--------------|
C----3-3-3--5-5-5--7-7-7--10--9----3-3-3--5-5-5--------------|
G----1-1-1--3-3-3--7-7-7--8---7----1-1-1--3-3-3---xxxxxx\----|
C------------------7-7-7--------------------------xxxxxx\----|


D---------------------------------------------------------------------------|
A---------------------------------------------------------------------------|
F----3-3-3--5-5-5---------10--9----3-3-3--5-5-5-----------------------------|
C----3-3-3--5-5-5--7-7-7--10--9----3-3-3--5-5-5-7h8p7h8p7h8p7h8p7h8p7h8p7h8-|
G----1-1-1--3-3-3--7-7-7---8--7----1-1-1--3-3-3-----------------------------|
C------------------7-7-7----------------------------------------------------|


fill

D-------------------------------------------|
A-------------------------------------------|
F-------------------------------------------|
C-------------------------------------7*----|
G-------------------------------------------|
C----0-0-0-0-0-0-0-0-0-0-0-0-0-0-0-0--------|
     pm.............................

D---------------------------------------------------------------------|
A---------------------------------------------------------------------|
F---------------------------------------------------------------------|
C------------------------------------7-5------------------------------|
G----0-0-0-0-0-0-0-0-0-0-0-0-0-0-------------7-8---8-7-8--12-10-12----|  x 2
C----0-0-0-0-0-0-0-0-0-0-0-0-0-0-0-0-----0-0-----0-8-7-8--12-10-12----|
     pm.............................     ...     .

D-------------------------------------------------------------------|
A-------------------------------------------------------------------|
F-------------------------------------------------------------------|
C----------------------------------7-5------------------------------|
G-----------------------------------------7-8---8-7-8--12-10--------|
C----0-0--0-0--0-0--0-0--0-0--0-0-----0-0-----0-8-7-8--12-10-12*----|
     pm.  ...  ...  ...  ...  ...     ...     .

D-------------------------------------------------------------------------|
A-------------------------------------------------------------------------|
F-----------------------------------------------------5~------------------|
C----------------------------------7-5----------8~~~~-5~---------5--------|
G-----------------------------------------7-8---8~~~~-3~-7-5-7-8---8-7----|
C----0-0--0-0--0-0--0-0--0-0--0-0-----0-0-----0-8~~~~---------------------|
     pm.  ...  ...  ...  ...  ...     ...     .          (    Coda    )

Play verse again, then chorus again then fill again, but without coda


breakdown (with wah and phaser) a bunch of times

D----------------------------|
A----------------------------|
F----------------------------|
C----15-14----14-17-14-14----|
G----------15----------------|
C----------------------------|

guitar 1

D----------------------------------------------------------------|
A----------------------------------------------------------------|
F--------0-2----------0-2----------0-2---------------------------|
C------------5-0-3-5------5-0-3-5------5-0-3-5---8-7-5-7-5-------|
G----------------------------------------------------------8~----|   x 4
C----------------------------------------------------------------|

guitar 2

D----------------------------------------------------------------------|
A----------------------------------------------------------------------|
F-------------------------------------------------12-12-12-14-14-14----|
C-------------------------------------------------10-10-10-12-12-12----|
G-------0-0-----------0-0----------0-0------------10-10-10-12-12-12----|
C--12\--0-0-----------0-0----------0-0----------0-10-10-10-12-12-12----|
        pm.           ...          ...          .

D-------------------------------------------------------|
A-------------------------------------------------------|
F-------------------------------------------------------|
C-----------------------------------------------0~~-----|  x 2
G-------0-0-----------0-0----------0-0----------0~~-----|
C--12\--0-0-----------0-0----------0-0----------0~~-----|
        pm.           ...          ...          .

guitar solo

D-------------------------------------------------------------------------|
A-------------------------------------------------------------------------|
F------------------------------------------------------------10-12-14~----|
C---------------------------------------------------10-11-12--------------|
G----7-7-7-7-7-7-8-8-8-8-8-8-8-7-7-7-7-7-7-10-11-12-----------------------|
C-------------------------------------------------------------------------|
     pm...................................

D--------------------------------------------------|
A--------------------------------------------------|
F----14p12p10-----10h12p10h12p10-9h10p9h10p9-7~----|
C-------------12\----------------------------------|
G--------------------------------------------------|
C--------------------------------------------------|
              |
      slide to nowhere here

D----t17h13h10-t17h13h10-t17h13h10-t17h13h10---t15h11h8-t15h11h8-t15h11h8---|
A---------------------------------------------------------------------------|
F---------------------------------------------------------------------------|
C---------------------------------------------------------------------------|
G---------------------------------------------------------------------------|
C---------------------------------------------------------------------------|


D----t15h11h8---t13h9h6-t13h9h6-t13h9h6-t13h9h6--15~----|
A-------------------------------------------------------|
F-------------------------------------------------------|
C-------------------------------------------------------|
G-------------------------------------------------------|
c-------------------------------------------------------|


D--------------------------------------------------------|
A-------------11-10--------------------------------------|
F----10-9-----------9---10-9---7---10-9-12-9-10-9--------|
C---------8------------------7--------------------10-----|
G--------------------------------------------------------|
C--------------------------------------------------------|


D----t17h13h10-t17h13h10-t17h13h10-t17h13h10---t18h13h10-t18h13h10-t18h13h10-|
A----------------------------------------------------------------------------|
F----------------------------------------------------------------------------|
C----------------------------------------------------------------------------|
G----------------------------------------------------------------------------|
C----------------------------------------------------------------------------|


D----t18h13h10---t20h13h10-t20h13h10-t20h13h10-t20h13h10---------------------|
A----------------------------------------------------------------------------|
F-------------------------------------------------------14-14-12-12-15-12-12-|
C----------------------------------------------------------------------------|
G----------------------------------------------------------------------------|
C----------------------------------------------------------------------------|


The play chorus again, then fill with this change to the ending...


D--------------------------------------------------------------------|
A--------------------------------------------------------------------|
F--------------------------------------------------------------------|
C----------------------------------7-5-------------------------------|
G-----------------------------------------7-8---8-7-8--12~~-xxxx\----|
C----0-0--0-0--0-0--0-0--0-0--0-0-----0-0-----0-8-7-8--12~~-xxxx\----|
     pm.  ...  ...  ...  ...  ...     ...     .


fill 2 ( x 4) with wah and phaser

D--------------------------------------------------|
A--------------------------------------------------|
F--------------------------------------------------|
C----15-14----14-17-14-14--( x 3)--15-14-----------|
G----------15----------------------------14-14b----|
C--------------------------------------------------|


End

D------------------------------------------------------------|
A------------------------------------------------------------|
F------------------------------------------------------------|
C------------------------------------------------------------|
G----0-0--0-0--0-0--0-0~~--( x 3)--12\\\-0-0--0-0--0---------|
C----0-0--0-0--0-0--0-0~~----------12\\\-0-0--0-0--0-15*-----|
     pm.  ...  ...  ...
            
Submit corrections

↑ Back to top | Tablatures and chords for acoustic guitar and electric guitar, ukulele, drums are parodies/interpretations of the original songs. You may use it for private study, scholarship, research or language learning purposes only