Home » B » Bullet For My Valentine »

Bullet For My Valentine - Disappear Tabs

Artists:  A B C D E F G H I J K L M N O P Q R S T U V W X Y Z # 

Disappear Tabs

(ver. 2) Click to play this song!
Bullet For My Valentine
 Rating:
4/5 (4 votes)
                Bullet for my valentine Disappear-Guitar tab

Intro
D-------------------------------------------|
A-------------------------------------------|
F---------------------------------5-------7-|
C-2-4-54-4-5-4-7-2-2-4-54-4-5-4-7-5---5---7-|
G-2--------------0-0--------------3---5---5-|
D-0--------------0-0------------------3-----|

Verse
D-----------------------------------------------------|
A---------------------------------------12131215-1312-|
F-----------------------------------------------------|
C-2---9-97-75------2---9-97-75------------------------|
G-2---7-75-53------2---7-75-53------------------------|
D-0--------------XX0----------------------------------|

Pre chorus
D--------------------------------------------------------------|
A--------------------------------------------------------------|
F----------9-10/11-910912-----------------------------777------|
C-5-------7-7-7-------------------other bit--5---/5-5-777-2-22-|
G-5------------------------------------------5---/5-5-555-2-22-|
D-3------------------------------------------3----3-3-----0-00-|

Bridge 1
D-----------------------------------------------|
A-----------------------------------------------|
F-----------------------------------------------|
C-4h5p4h5p4--)how-ever-many-times-5h6p5h6p5-----|
G-----------5)-----------------------------6-5--|v
D-----------------------------------------------|

Backing to the solo
D---------------|
A---------------|
F-7---5---------|
C-7---5---2---5-|
G-5---3---2---5-|
D---------0---3-|

Bridge 2
D-------------------|
A-------------------|
F-------------------|
C-9----9-7-5----5-7-|
G-777777-5-333333-5-|
D-------------------|

D------------------------|
A------------------------|
F--9-10/11-910912)-------|
C-7-7------------)X4-2-2-|
G--------------------2-2-|
D--------------------0-0-|

Intro X2
Verse X3
Pre chorus-other bit
Intro X2
Verse X3
Pre chorus-other bit
Intro X2
Bridge 1 X2
Backing to the solo X2
Bridge 2 X4
Pre chorusX3-other bit
IntroX2
The end riff

I’m still working out the solo…
            
Submit corrections

↑ Back to top | Tablatures and chords for acoustic guitar and electric guitar, ukulele, drums are parodies/interpretations of the original songs. You may use it for private study, scholarship, research or language learning purposes only