» » »

Buckethead - Bucketheads Tv Show Tabs

Artists:  A B C D E F G H I J K L M N O P Q R S T U V W X Y Z # 

Bucketheads Tv Show Tabs

(ver. 1) Click to play this song!
Buckethead
 Rating:
4/5 (4 votes)

 Bucketheads Tv Show lessons Tabs too difficult? Try these video lessons and learn fast
 
                1st guitar part:

I've broken it into measures, but in no other way is timing indicated.

E-------7-5-|-3-----|-----------|---------|-------
B---777-----|---7-7-|---777-5-3-|-2-3p2---|---8-8-
G-4---------|-------|-4---------|-------4-|-------
D-----------|-------|-----------|---------|-5-----
A-----------|-------|-----------|---------|-------
E-----------|-------|-----------|---------|-------

E-----|-------|-------------|-------||--------------|-10-
B-----|-------|---8-8-------|-------||-10-7-7-8-7-5-|----
G-7-6-|-4---4-|-------9-7-6-|-4---4-||--------------|----
D-----|---4---|-5-----------|---4---||--------------|----
A-----|-------|-------------|-------||--------------|---- 
E-----|-------|-------------|-------||--------------|----

E-9-9-9-10-12-|---------------------|-----||-
B-------------|-12-10-10h12-12-10-8-|-----||-
G-------------|---------------------|-11--||-
D-------------|---------------------|-----||-
A-------------|---------------------|-----||-
E-------------|---------------------|-----||-
            
Submit corrections


        Bucketheads Tv Show lessons Hard to play? Try these video lessons and learn fast Bucketheads Tv Show lessons
        
↑ Back to top | Tablatures and chords for acoustic guitar and electric guitar, ukulele, drums are parodies/interpretations of the original songs. You may use it for private study, scholarship, research or language learning purposes only