» » »

Buckethead - Padmasana Tabs

Artists:  A B C D E F G H I J K L M N O P Q R S T U V W X Y Z # 

Padmasana Tabs

(ver. 1) Click to play this song!
Buckethead
 Rating:
4/5 (4 votes)

 Padmasana lessons Tabs too difficult? Try these video lessons and learn fast
 
                Padmasana by Buckethead

Tuning: half step down

E-------------------------------------------
B-------------------------------------------
G---------5------4--5-----------------------
D------2------2------------------3----2---3-
A---0-------------------------3----3----3---
E------------------------3--1---------------







Legend:
H- hammer on
P- pull off

I just started transfering this tab onto my computer tonight, it's kind of time consuming, it's just thrown together (in order!), so I apologize for any confusion it'll cause ya. I'll be adding more to it as I get time (injury permitting) so it may take a while. Enuf of me, lets get down to the technical stuff.

The below section is the chorused intro riff you hear. It is repeated throughout the songs as a rhythm riff.
||------------------|------------------||-------------|-------------3-|
||o-----1---0h1-----|-----------------o||-3-3-5--0-3--|-3-3-5-5---1---|
||----------------2-|---------0--------||-4-4h5--2-4--|-4-4h5-5-4-----|
||----2---2-----2---|-----3-----3---3--||-------------|---------------|
||o-0---------------|---3---3-----3---o||-------------|---------------|
||------------------|-1----------------||-------------|---------------|

|-------3--|-------5-----3-|-3h5-3---|-3h5-3-----|-7h8-8h10-7-8---|-7h8-8h=|
|----------|-3-3-5---------|-------3-|-------5-3-|--------------8-|--------|
|-4h=5-----|-4-4h5---4h5---|---------|-----------|----------------|--------|
|----------|---------------|---------|-----------|----------------|--------|
|----------|---------------|---------|-----------|----------------|--------|
|----------|---------------|---------|-----------|----------------|--------|

|-10-12-12-10-10-|-8p7---------|
|----13-13-12-12-|-----8-------|
|----------------|-------7-7h9-|
|----------------|-------------|
|----------------|-------------|
|----------------|-------------|

|-----------------------|-------12-15p13-12-12----|
|---------5-5h6p5---5b7r|----13-------------------|
|-----5-7---------7-----|-14----------------------|
|-5-7-------------------|-------------------------|
|-----------------------|-------------------------|
|-----------------------|-------------------------|

This is the first minute or two of the song. As for timing, it should be somewhat accurate, but listen to the recording for the actual timing. One last word, you may have to put it together a bit.
            
Submit corrections


        Padmasana lessons Hard to play? Try these video lessons and learn fast Padmasana lessons
        
↑ Back to top | Tablatures and chords for acoustic guitar and electric guitar, ukulele, drums are parodies/interpretations of the original songs. You may use it for private study, scholarship, research or language learning purposes only