Home » B » Bruce Springsteen »

Bruce Springsteen - Cover Me Bass

Artists:  A B C D E F G H I J K L M N O P Q R S T U V W X Y Z # 

Cover Me Bass

(ver. 2) Click to play this song!
Bruce Springsteen
Intro:
G|-------------------------------------------
D|-------------------------------------------
A|-----5----------5----------5----------5----
E|-7--5---5---7--5---5---7--5---5---7--5---5-

Verse:
G|-----------------------------------------------------------------
D|-----------------------------------------------------------------
A|-----5----------5----------5----------5----5-7--7---5---7--7---5-
E|-7--5---5---7--5---5---7--5---5---7--5----5-------7----------7---

Chorus 1:
G|-------------------------------------------------------
D|----------------------5-5-5-5-5-5-5-5---7-7-7-7--------
A|-----5----------5----5---------------------------------
E|-7--5---5---7--5----5--------------------------5-5-5-5-

G|---------------------
D|---------------------
A|-----5----------5----
E|-7--5---5---7--5---5-

Repeat Verse:

Chorus 2:
G|-------------------------------------------------------
D|----------------------5-5-5-5-5-5-5-5---7-7-7-7--------
A|-----5----------5----5---------------------------------
E|-7--5---5---7--5----5--------------------------5-5-5-5-

G|---------------------
D|---------------------
A|-----5-----------5-6-
E|-7--5---5---7--5-----

Bridge:
G|---------------------------------------------------------------
D|---------------------------------------------------------------
A|-7--7---5---7--7---5---2-2---0-2---0-0-2---7--7---5---7--7---5-
E|------7----------7---------2--------------------7----------7---

G|---------------------------------
D|-4-4-4-4-4-4-4-4-----------------
A|---------------------------------
E|-----------------2-2-2-2-2-0-2-4-

Repeat Verse:

Repeat Chorus 1:

Instrumental:
G|-----------------------------------------------------------------------
D|-----------------------------------------------------------------------
A|-----5----------5----------5----------5----5-7-7-7-7---5---7--7-7--7-5-
E|-7--5---5---7--5---5---7--5---5---7--5----5----------7-----------7-----

G|-------------------------------------------------------
D|----------------------5-5-5-5-5-5-5-5---7-7-7-7--------
A|-----5----------5----5---------------------------------
E|-7--5---5---7--5----5--------------------------5-5-5-5-

G|---------------------
D|---------------------
A|-----5-----------5-6-
E|-7--5---5---7--7-----

Repeat Bridge:

Repeat Verse:

Repeat Chorus 3:                           (Play This x3)
G|-------------------------------------------------------
D|----------------------5-5-5-5-5-5-5-5---7-7-7-7--------
A|-----5----------5----5---------------------------------
E|-7--5---5---7--5----5--------------------------5-5-5-5-

Then Play This:
G|---------------------
D|---------------------
A|-----5----------5----
E|-7--5---5---7--5---5-

Outro:                   (Repeat To Fade/End)
G|-------------------------------------------
D|-------------------------------------------
A|-----5----------5----------5----------5----
E|-7--5---5---7--5---5---7--5---5---7--5---5-

            
Submit corrections

↑ Back to top | Tablatures and chords for acoustic guitar and electric guitar, ukulele, drums are parodies/interpretations of the original songs. You may use it for private study, scholarship, research or language learning purposes only