Home » B » Bruce Springsteen »

Bruce Springsteen - Cover Me Bass

Artists:  A B C D E F G H I J K L M N O P Q R S T U V W X Y Z # 

Cover Me Bass

(ver. 1) Click to play this song!
Bruce Springsteen
--------------------------------------------------------------------------
			     Cover Me - Bruce Springsteen
--------------------------------------------------------------------------


An awesome song by BRUUUUUUCE

Tuning: Standard

Intro/Verse (3 bars of this)
G|------------------------------------|
D|------------------------------------|
A|--------5---------------------------|
E|--7-x-5---5-------------------------|

Then the 4th bar (the A is played as an 8th note and you go right to the D)
G|------------------------------------|
D|------------------------------------|
A|--------5---5-----------------------|
E|--7-x-5---5-------------------------|

2 bars of this now...
G|------------------------------------|
D|------------------------------------|
A|-7-x-7---5--------------------------|
E|-------7----------------------------|

Into the Chorus...
G|---------------------------------------------------|
D|------------------------------5-5555555--7777------|
A|--------5-----------5---5-7------------------------|
E|--7-x-5---5---7-x-5---5----------------------5555--|

Bridge "Outside's the rain, the driving snow"
G|------------------------------------------------------------|
D|------------------------------------------------------------|
A|--7-x-7---5----7-x-7---5---2-2---0-2-0-0-2------------------|
E|--------7---7--------7---------2----------------------------|

G|------------------------------------------------------------|
D|------------------------44444444----------------------------|
A|--7-x-7---5--7-x-7---5--------------------------------------|
E|--------7----------7-------------2222-2-0-2-5---------------|

That's all you need. Do all of that again for the next verse.
Just finish out the songs with the right parts again.
Add your own fills for fun, or stay off the D string and use slides if you want.

| /  slide up
| \  slide down
| h  hammer-on
| p  pull-off
| ~  vibrato
| +  harmonic
| x  Mute note
==========================================================================
            
Submit corrections

↑ Back to top | Tablatures and chords for acoustic guitar and electric guitar, ukulele, drums are parodies/interpretations of the original songs. You may use it for private study, scholarship, research or language learning purposes only