Home » B » Brownman Revival »

Brownman Revival - Lintik Bass

Artists:  A B C D E F G H I J K L M N O P Q R S T U V W X Y Z # 

Lintik Bass

(ver. 1) Click to play this song!
Brownman Revival
Transcription: Bass Tab
Tuning: Standard E A D G

Intro
G]--------------------------------------------------------------------------]
D]--------------------------------------------------------------------------]
A]--------------------------------------------------------------------------]
E]---5-5-2-0-5--------------------------------------------------------------]


G]--------------------------------------------------------------------------]
D]--------------------------------------------------------------------------]
A]------44-4-2-----00-22-55-5-4-----00-44-77-7-5-----55-4-2-0---------------]
E]---55-------------------------------------------------------4-5\----------]


chorus/verse
G]--------------------------------------------------------------------------]
D]-----444------9----------------7------------------------------------------]
A]---2----2\--7--7---777-------5--------------------------------------------]
E]-----------------5----5--5-7----------------------------------------------]

G]--------------------------------------------------------------------------]
D]-----444------9-----------------------------------------------------------]
A]---2----2\--7--7---77777--------------------------------------------------]
E]-----------------5------5555----------------------------------------------]
            
Submit corrections

↑ Back to top | Tablatures and chords for acoustic guitar and electric guitar, ukulele, drums are parodies/interpretations of the original songs. You may use it for private study, scholarship, research or language learning purposes only