Home » B » Brownman Revival »

Brownman Revival - Binibini Bass

Artists:  A B C D E F G H I J K L M N O P Q R S T U V W X Y Z # 

Binibini Bass

(ver. 1) Click to play this song!
Brownman Revival
Key
 / = Slide Up To Fret
 \ = Slide Down To Fret
 h = Hammer On
 p = Pull Off
 X = Muted Note
 > = Let Ring
 I) = Bend Up
 U) = Bend Down
 T = Tap (whack string with joining bone on thumb)
 P = Pop (pull the string upwards with index finger, middle, ring, or pinky
          releasing it to make a twang)

BINIBINI
version by Brownman Revival

please use the Standard Tuning(EADG)..

Intro

E---0------X--/5-----|
A----/7-5--------5---|
D--------------------|
G--------------------|

Chorus

E--3>---0--3-3----0-3-4-5>---5-------5---5--|
A------------------------------5-5>----5----|
D-------------------------------------------|
G-------------------------------------------|


E--3>---0-3-x-3>----0-3-4-5>----5---5-------|
A---------------------------------5---5-----|
D-------------------------------------------|
G-------------------------------------------|

Verse

E---3--3----0-3-x-x-x---3---------7--7---------7--|
A--------5------------5------/7-7------7-x-x-x----|
D-------------------------------------------------|
G-------------------------------------------------|

E-----7-5--5----0-5-x-x-x----5h7-----5--5---------5----5--|
A---7--------7------------7------5-5------5-x-x-x----5----|
D---------------------------------------------------------|
G---------------------------------------------------------|

E---3--3----0-3-x-x-x---3---------7--7---------7--|
A--------5------------5------/7-7------7-x-x-x----|
D-------------------------------------------------|
G-------------------------------------------------|

E-----7-5--5----0-5-x-x-x----5h7-----5--5---------5----5--|
A---7--------7------------7------5-5------5-x-x-x----5----|
D---------------------------------------------------------|
G---------------------------------------------------------|

E-------x-5---5----5---5-3--3---0-3-x-x-x--------|
A---5-5----5----x-5--5--------5-----------/5-/5--|
D------------------------------------------------|
G------------------------------------------------|

E-------3--3---------3---3--1--1---------0-1-2---|
A---3-3------3-x-x-x---3---------0--0-3----------|
D------------------------------------------------|
G------------------------------------------------|

Chorus

E--3>---0--3-3----0-3-4-5>---5-------5---5--|
A------------------------------5-5>----5----|
D-------------------------------------------|
G-------------------------------------------|


E--3>---3-4>---4-5>---5----5--5-------------|
A-----------------------5----5--------------|
D-------------------------------------------|
G-------------------------------------------|

Verse (This one here is basically the same with the first verse, but if you want the 

E---3--3----0-3-x-x-x---3---------7--7---------7--|
A--------5------------5------/7-7------7-x-x-x----|
D-------------------------------------------------|
G-------------------------------------------------|

E-----7-5--5----0-5-x-x-x----5h7-----5--5---------5----5--|
A---7--------7------------7------5-5------5-x-x-x----5----|
D---------------------------------------------------------|
G---------------------------------------------------------|

E---3--3----0-3-x-x-x---3---------7--7---------7--|
A--------5------------5------/7-7------7-x-x-x----|
D-------------------------------------------------|
G-------------------------------------------------|

E-----7-5--5----0-5-x-x-x----5h7-----5--5---------5----5--|
A---7--------7------------7------5-5------5-x-x-x----5----|
D---------------------------------------------------------|
G---------------------------------------------------------|

E-------x-5---5----5---5-3--3---0-3-x-x-x--------|
A---5-5----5----x-5--5--------5-----------/5-/5--|
D------------------------------------------------|
G------------------------------------------------|

E-------3--3---------3---3--1--1---------0-1-2---|
A---3-3------3-x-x-x---3---------0--0-3----------|
D------------------------------------------------|
G------------------------------------------------|

Chorus

E--3>---0--3-3----0-3-4-5>---5-------5---5--|
A------------------------------5-5>----5----|
D-------------------------------------------|
G-------------------------------------------|

E--3>---0-3-x-3>----0-3-4-5>----5---5-------|
A---------------------------------5---5-5---|
D-------------------------------------------|
G-------------------------------------------|

Bridge

E--------3-3---------3---3---5-5---5---------5---5--|
A----3-3-----3-x-x-x---3---------7---5-x-x-x---5----|
D---------------------------------------------------|
G---------------------------------------------------|

E---3--3----0-3-x-x-x----5-x--3--3----0-3-x-x-x--3--|
A--------5------------5------------5------------5---|
D---------------------------------------------------|
G---------------------------------------------------|

E--------x-7---------x-6---------x-5--------x-4-----|
A---/7-7-----7---6-6-----6---5-5-----5---4-4-----4--|
D---------------------------------------------------|
G---------------------------------------------------|

E---5--0-5-x-0---5-x-0---5h7-----5--5---5-----5-----|
A----------------------------5-5------5--5--5---5---|
D---------------------------------------------------|
G---------------------------------------------------|

want the complicated/accurate one.)

E---3--3----0-3-x-x-x---3---------7--7---------7--|
A--------5------------5------/7-7------7-x-x-x----|
D-------------------------------------------------|
G-------------------------------------------------|

E-----7-5--5----0-5-x-x-x----5h7-----5--5---------5----5--|
A---7--------7------------7------5-5------5-x-x-x----5----|
D---------------------------------------------------------|
G---------------------------------------------------------|

E---3--3----0-3-x-x-x---3---------7--7---------7--|
A--------5------------5------/7-7------7-x-x-x----|
D-------------------------------------------------|
G-------------------------------------------------|

E-----7-5--5----0-5-x-x-x----5h7-----5--5---------5----5--|
A---7--------7------------7------5-5------5-x-x-x----5----|
D---------------------------------------------------------|
G---------------------------------------------------------|

E-------x-5---5----5---5-3--3---0-3-x-x-x--------|
A---5-5----5----x-5--5--------5-----------/5-/5--|
D------------------------------------------------|
G------------------------------------------------|

E-------3--3---------3---3--1--1---------0-1-2---|
A---3-3------3-x-x-x---3---------0--0-3----------|
D------------------------------------------------|
G------------------------------------------------|

Chorus

E--3>---0--3-3----0-3-4-5>---5-------5---5---|
A------------------------------5-5>----5-----|
D--------------------------------------------|
G--------------------------------------------|


E--3>---0-3-x-3>----0-3-4-5>----5---5--------|
A---------------------------------5---5------|
D--------------------------------------------|
G--------------------------------------------|


E--3>---0--3-3---0-3-4-5>---5-------5---5-3>-|
A------------------------------5-5>----5-----|
D--------------------------------------------|
G--------------------------------------------|
            
Submit corrections

↑ Back to top | Tablatures and chords for acoustic guitar and electric guitar, ukulele, drums are parodies/interpretations of the original songs. You may use it for private study, scholarship, research or language learning purposes only