» » »

Brokencyde - Kandyland Bass

Artists:  A B C D E F G H I J K L M N O P Q R S T U V W X Y Z # 

Kandyland Bass

(ver. 1) Click to play this song!
Brokencyde
 Rating:
4/5 (4 votes)
                G|---------------------------------|
D|-3-----3-3---3-------3---------3-|
A|---------------------------------|
E|---------------------------------|
   1 e + a 2 e + a 3 e + a 4 e + a

G|---------------------------------|
D|-3-----3-3---3-------3---------3-|
A|---------------------------------|
E|---------------------------------|
   1 e + a 2 e + a 3 e + a 4 e + a

G|---------------------------------|
D|---------------------------------|
A|-2-----2-2---2-------2--------2--|
E|---------------------------------|
   1 e + a 2 e + a 3 e + a 4 e + a

G|---------------------------------|
D|---------------------------------|
A|-0-----0-0---0-------0-----0-2~--|
E|---------------------------------|
   1 e + a 2 e + a 3 e + a 4 e + (a) (Repeat multiple times)

Very easy song to learn. Listen very carefully in the background and you should be able 
hear it.
            
Submit corrections

↑ Back to top | Tablatures and chords for acoustic guitar and electric guitar, ukulele, drums are parodies/interpretations of the original songs. You may use it for private study, scholarship, research or language learning purposes only