» » »

Brokencyde - Get Crunk Bass

Artists:  A B C D E F G H I J K L M N O P Q R S T U V W X Y Z # 

Get Crunk Bass

(ver. 1) Click to play this song!
Brokencyde
 Rating:
4/5 (4 votes)
                This song is pretty easy, its just four different chords arrpegiating(sp?) in standard 
And this song is the best.

			Get CRUNK!!!!!!!!!!-BrokenCYDE


Tuning:EADG

Basically the entire song....

G|---------9-------9------9-----9-----10------10------10------10-------------|
D|---7-10-----7-10----7-10--7-10--9-12---9-12----9-12----9-12----------------|
A|---------------------------------------------------------------------------|
E|---------------------------------------------------------------------------|

G|--------9------9------9-------9------14-17-----14-17--------16-------16-----|
D|---7-10---7-10---7-10---7--10-----15--------15--------14-17----14-17--------|
A|----------------------------------------------------------------------------|
E|----------------------------------------------------------------------------|

Yea not much to it just listen to the synth for timing and stuff
            
Submit corrections

↑ Back to top | Tablatures and chords for acoustic guitar and electric guitar, ukulele, drums are parodies/interpretations of the original songs. You may use it for private study, scholarship, research or language learning purposes only