» » »

Bright Eyes - Firewall Tabs

Artists:  A B C D E F G H I J K L M N O P Q R S T U V W X Y Z # 

Firewall Tabs

(ver. 2) Click to play this song!
Bright Eyes
 Rating:
4/5 (4 votes)

 Firewall lessons Tabs too difficult? Try these video lessons and learn fast
 
                -------------------------------------------------------------------------------
-------------------------------------------------------------------------------

Tuning:standard

palm mute/ don't let all notes ring


basic riff (intro)
e|-----------------------------|
B|-----------------------------|
G|---------------------------0-|
D|-----2-------0-----2---------|
A|---0---0---0-----0---0---0---|
E|-0-------3-----0-------3-----|2X   (doesn't repeat, kinda... but not really)


   I do my best to sleep through the caterwaul
e|--------------------------------------------------------------------------|
B|--------------------------------------------------------------------------|
G|--------------------------------------------------------------------------|
D|-----2-------0-----2-------0-----2-------0------2-------0-----------------|
A|---0---0---0-----0---0---0-----0---0---0------0---0---0-------------------|
E|-0-------3-----0-------3-----0-------3------0-------3---------------------|
  

   the classicist, the posturing avant-garde
e|--------------------------------------------------------------------------|
B|--------------------------------------------------------------------------|
G|---------------------------0----------------------------------------------|
D|-----2-------0-----2------------------------------------------------------|
A|---0---0---0-----0---0---0------------------------------------------------|
E|-0-------3-----0-------3--------------------------------------------------|

                                
                                   I Bought a Grey Macaw named him Jules Verne 
e|---------------------------------x----------------------------------------|
B|---------------------------------1--------------------------------------3-|
G|--------------------------0h2p0--0----strum-C---------------------------4-|
D|-----2-------0-----2-------------2--------------------------------------4-|
A|---0---0---0-----0---0---0----3--3--------------------------------------2-|
E|-0-------3-----0-------3--------------------------------------------------|

 Probably outlive me he's a bright bird, keeps me company I'll teach him new words
 e|-------------------------------------------------------------------------|
B|-3------------------------------------------------------------------------|
G|-4--------------------0------------0-------------------------------------0|
D|-4--strumBm------------------0-----------0-------2-------0-------2--------|
A|-2-------------------------0---0-------0---0---0---0---0-------0---0---0--|
E|---------------------0---3-------0---3-------0-------3-------0-------3----|

                
    I saw a hologram at the theme park
e|--------------------------------------------------------------------------|
B|--------------------------------------------------------------------------|
G|---------------------------0---------------------------0------------------|
D|-----2-------0-----2-------------2-------0-----2--------------------------|
A|---0---0---0-----0---0---0-----0---0---0-----0---0---0--------------------|
E|-0-------3-----0-------3-----0-------3-----0-------3----------------------|


    looked as real as me through the white fog
e|--------------------------------------------------------------------------|
B|--------------------------------------------------------------------------|
G|---------------------------0----------------------------------------------|
D|-----2-------0-----2------------------------------------------------------|
A|---0---0---0-----0---0---0------------------------------------------------|
E|-0-------3-----0-------3--------------------------------------------------|

                             
                                     then she melted down to her ankles 
e|---------------------------------x----------------------------------------|
B|---------------------------------1----------------------------------------|
G|--------------------------0h2p0--0---strum-C----------------------------x-|
D|-----2-------0-----2-------------2--------------------------------------x-|
A|---0---0---0-----0---0---0----3--3--------------------------------------2-|
E|-0-------3-----0-------3------------------------------------------------0-|


turned into a million watt can-dle, If i knew where she went I would follow...
e|--------------------------------------------------------------------------|
B|-3------------------------------------------------------------------------|
G|-4------------------------0--------------------------0--------------------|
D|-4-strum-Bm------------2--------2------0-----2-------------2-------0h2p0--|
A|-2-------------------0--------0--0---0-----0---0---0-----0---0---0--------|
E|-------------------0----3---0------3-----0-------3-----0-------3----------|




  walking through the land of tomorrow,   martian trinkets, plastic Apollos 
e|---------------------------------------x----------------------------------|
B|(2)----1-------------------------------3----------------------------------|
G|-2-2-2-2-----strum-Am------------------2----------------------------------|
D|-2-2-2-2-------------------------------0------strum-D---------------------|
A|-0-0-0-0------------------------------------------------------------------|
E|--------------------------------------------------------------------------|


 
  in the sunshine try to act normal,   her veins are full of flat cherry cola
e|-3-3--------------3-------------------------------------------------------|
B|---3--------------0--------------------1----------------------------------|
G|-0-0--------------0--------------------0----------------------------------|
D|-x---and-G-----------------------------2--strum-C-------------------------|
A|-x-x--------------x--------------------3----------------------------------|
E|-3-3--------------3-------------------------------------------------------|

 
 slept on a bench near the roller-coaster                            Drempt
e|--------------------------------------------------------------------------|
B|---------------------------------------------------------------3----------|
G|---------------------------------------------0-----------------2--ring----|
D|-----2-------0-------2-------0-------2---------0-----2-------0-0----------|
A|---0---0---0---0---0---0---0---0---0---0---0-------0---0---0--------------|
E|-0-------3-------0-------3-------0-------3-------0-------3----------------|


I was riding on a motor bike                     lion of Judah on the side
e|--2--------------0-----3------------------2----------------0---3----2-----|
B|--3---strum------1-----3------------------3----------------1---3----3-----|
G|--2--------------0-----0------------------2----------------0---0----2-----|
D|--0--------------2------------------------0----------------2---0----0-----|
A|-----------------3-----x-----------------------------------3---x----------|
E|-----------------------3---------------------------------------3----------|

Verse 2

e|--------------------------------------------------------------------------|
B|--------------------------------------------------------------------------|
G|------------------------------------------------------------0-------------|
D|-----2-------0-------2-------0------2-------0-------2---------------------|
A|---0---0---0---0---0---0---0------0---0---0---0---0---0---0---------------|
E|-0-------3-------0-------3------0-------3-------0-------3-----------------|

   I'm doing fine I'm back in the Palisades
e|--------------------------------------------------------------------------|
B|--------------------------------------------------------------------------|
G|------------------------------------------------------------0-------------|
D|-----2-------0-------2-------0------2-------0-------2---------------------|
A|---0---0---0---0---0---0---0------0---0---0---0---0---0---0---------------|
E|-0-------3-------0-------3------0-------3-------0-------3-----------------|


   Life's a wash a pastoral school play
e|--------------------------------------------------------------------------|
B|--------------------------------------------------------------------------|
G|-----------------------------0--------------------------------------------|
D|-----2-------0-------2----------------------------------------------------|
A|---0---0---0---0---0---0---0----------------------------------------------|
E|-0-------3-------0-------3------------------------------------------------|

                                
                                       China shops and cold  ivory towers
e|------------------------------------x-------------------------------------|
B|------------------------------------1-----------------------------------3-|
G|-----------------------------0h2p0--0----strum-C------------------------4-|
D|-----2-------0-------2--------------2-----------------------------------4-|
A|---0---0---0---0---0---0---0-----3--3-----------------------------------2-|
E|-0-------3-------0-------3------------------------------------------------|

   
   "I and I" make toast to the Caesars   Forcing down the dregs of Decemebers
e|--------------------------------------------------------------------------|
B|-3------------------------------------------------------------------------|
G|-4-strum-Bm--------------------------0------------------------------------|
D|-4-----------2-------0-------2--------------2-------0---------2-------0---|
A|-2---------0---0---0---0---0---0---0------0---0---0----0----0---0---0-----|
E|---------0-------3-------0-------3------0-------3---------0-------3-------|

     Madeline she spins in a slow pain
e|--------------------------------------------------------------------------|
B|--------------------------------------------------------------------------|
G|-----------------------------0---------------------------(12)-------------|
D|-----2-------0-------2-------------2-------0-------2----------------------|
A|---0---0---0---0---0---0---0-----0---0---0---0---0---0---0----------------|
E|-0-------3-------0-------3-----0-------3-------0-------3------------------|

 
     All through the house the strong smell of burnt sage
e|--------------------------------------------------------------------------|
B|--------------------------------------------------------------------------|
G|--------------------------------------------------------------------------|
D|-----2-------0-------2-------0--------------------------------------------|
A|---0---0---0---0---0---0---0----------------------------------------------|
E|-0-------3-------0-------3------------------------------------------------|

     
                                    Lets make it clean and run out the spirits 
e|----------------------------------x---------------------------------------|
B|----------------------------------1-------------------------------------3-|
G|----------------------------(12)--0-strum-C-----------------------------4-|
D|------2-------0-------2-----------2-------------------------------------4-|
A|----0---0---0---0---0---0---0-----3-------------------------------------2-|
E|--0-------3-------0-------3-----------------------------------------------|


    I know i diving bell when I hear it    we're going down now under the surface 
e|--------------------------------------------------------------------------|
B|-3------------------------------------------------------------------------|
G|-4-(strum-Bm)-------------------------------------------------------------|
D|-4--------------------------------x2----------x0-------x----------etc?----|
A|-2-----------------------------x0----x0----x0----x---x---x----------------|
E|----------------------------x0----------x3---------x-------x--------------|




    Light and dark can shift in an instant, getting close but keeping my distance  
e|---------------------------------------x----------------------------------|
B|(2)----1-------------------------------3----------------------------------|
G|-2-2-2-2-----strum-Am------------------2----------------------------------|
D|-2-2-2-2-------------------------------0------strum-D---------------------|
A|-0-0-0-0------------------------------------------------------------------|
E|--------------------------------------------------------------------------|


 
  on all fours she's just so insistent,   fills my mind with jump ropes and slit wrists
e|-3-3--------------3-------------------------------------------------------|
B|---3--------------0--------------------1----------------------------------|
G|-0-0--------------0--------------------0----------------------------------|
D|-x---and-G-----------------------------2--strum-C-------------------------|
A|-x-x--------------x--------------------3----------------------------------|
E|-3-3--------------3-------------------------------------------------------|

 
     bust through the firewall into heaven                       Drempt
e|--------------------------------------------------------------------------|
B|---------------------------------------------------------------3----------|
G|-----------------------------0---------------------------------2--ring----|
D|-----2-------0-------2---------------2-------0-------2-------0-0----------|
A|---0---0---0---0---0---0---0-------0---0---0---0---0---0---0--------------|
E|-0-------3-------0-------3-------0-------3-------0-------3----------------|


and then I'm standing in that blinding light,  crooked crosses falling from the sky 
e|--2--------------0-----3------------------2----------------0---3----2-----|
B|--3---strum------1-----3------------------3----------------1---3----3-----|
G|--2--------------0-----0------------------2----------------0---0----2-----|
D|--0--------------2------------------------0----------------2---0----0-----|
A|-----------------3-----x-----------------------------------3---x----------|
E|-----------------------3---------------------------------------3----------|

                   Seen yeah seen by I and I,   Seen yeah seen by I and I
e|--8----7---5/---3---------------0--------------3---------------0----3-----|
B|--8----7---5/---3---------------1--------------3---------------1----3-----|
G|--9----7---5/---4---------------0--------------4---------------0----4-----|
D|--10---9---7/---5---------------2--------------5---------------2----5-----|
A|--10---9---7/---5---------------3--------------5---------------3----5-----|
E|--8----7---5/---3------------------------------3--------------------3-----|


    Seen yeah seen by I and I,             Seen yeah seen by I and I
e|--0---------------------3-----------------0---------------3----0----------|
B|--1---------------------3-----------------1---------------3----1----------|
G|--0---------------------4-----------------0---------------4----2----------|
D|--2----------------2----5-----------------2---------------5----2----------|
A|--3----------------2----5-----------------3---------------5----0----------|
E|------------------x0----3---------------------------------3---------------|


     Seen yeah seen by I and I,             Seen yeah seen by I and I   
e|--3----------------0-----x----------------3---------------0-----3---------|
B|--3----------------1-----1----------------3---------------1-----3---------|
G|--4----------------2-----0----------------4---------------0-----4---------|
D|--5----------------2-----2----------------5---------------2-----5---------|
A|--5----------------0-----3----------------5---------------3-----5---------|
E|--3---------------------------------------3---------------------3---------|

Seen yeah seen yeah seen yeah seen yeah seen yeah seen yeah  by I and I   
e|-x------3----------x--------3---------x---------3-----------0----0--------|
B|-1------3----------1--------3---------1---------3-----------1----1--------|
G|-0------4----------0--------4---------0---------4-----------2----2--------|
D|-2------5----------2--------5---------2---------5-----------2----2--------|
A|-3------5----------3--------5---------3---------5-----------0----0--------|
E|--------3-------------------3-------------------3-------------------------|
            
Submit corrections


        Firewall lessons Hard to play? Try these video lessons and learn fast Firewall lessons
        
↑ Back to top | Tablatures and chords for acoustic guitar and electric guitar, ukulele, drums are parodies/interpretations of the original songs. You may use it for private study, scholarship, research or language learning purposes only