» » »

Bright Eyes - Firewall Tabs

Artists:  A B C D E F G H I J K L M N O P Q R S T U V W X Y Z # 

Firewall Tabs

(ver. 1) Click to play this song!
Bright Eyes
 Rating:
4/5 (4 votes)

 Firewall lessons Tabs too difficult? Try these video lessons and learn fast
 
                -------------------------------------------------------------------------------
                             Bright Eyes - Firewall
-------------------------------------------------------------------------------

None of the tabs were correct but its real simple.

Please rate, First tab!

Tuning:

e|-----------------------------------------------------------------------------|
B|-----------------------------------------------------------------------------|
G|-----------------------------------0-----------------------------------------|
D|------2--------0--------2----------------------------------------------------|
A|----2---2----2---0----2---2-----2--------------------------------------------|
E|--0--------3---------0---------3---------------------------------------------|


Thats mainly it. Il add the rest when i can be bothered.
            
Submit corrections


        Firewall lessons Hard to play? Try these video lessons and learn fast Firewall lessons
        
↑ Back to top | Tablatures and chords for acoustic guitar and electric guitar, ukulele, drums are parodies/interpretations of the original songs. You may use it for private study, scholarship, research or language learning purposes only