Home » B » Breeders »

Breeders - No Aloha Tabs

Artists:  A B C D E F G H I J K L M N O P Q R S T U V W X Y Z # 

No Aloha Tabs

(ver. 3) Click to play this song!
Breeders
 Rating:
4.3/5 (23 votes)
                Guitar I starts at ~0:04
e|---------------------------------------------------------------------|
B|---------------------------------------------------------------------|
G|-------------------------------------------------12/6----------------|
D|--5/8--7/10--8/11--12--------5/8--7/10--8/11--12------12-12-12-13----|
A|---------------------------------------------------------------------|
E|---------------------------------------------------------------------|

"I know, I saw..."
e|---------------------------------------------------------------------|
B|---------------------------------------------------------------------|
G|---------------12----------------------------------------------------|
D|--12-------------12/20-----------------------------------------------|
A|-----13-12-----------------------------------------------------------|
E|-----------10--------------------------------------------------------|

At ~0:48
e|---------------------------------------------------------------------|
B|---------------------------------------------------------------------|
G|-----------------------12/6------------------------------------------|
D|--5/8--7/10--8/11--12-------12-12-12-13------------------------------|
A|---------------------------------------------------------------------|
E|---------------------------------------------------------------------|

"I know, I saw..."
e|---------------------------------------------------------------------|
B|---------------------------------------------------------------------|
G|---------------12-12-------------------------------------------------|
D|--12--------------12/20----------------------------------------------|
A|-----13-12-----------------------------------------------------------|
E|-----------10--------------------------------------------------------|

At ~1:12
e|---------------------------------------------------------------------|
B|---------------------------------------------------------------------|
G|---------------------------------------------------------------------|
D|------------------5/8--7/10--8/11--12--------------------------------|
A|--13-12-10/12-10-----------------------------------------------------|
E|---------------------------------------------------------------------|

e|---------------------------------------------------------------------|
B|---------------------------------------------------------------------|
G|-------------------------------------12/6----------------------------|
D|-----------------5/8--7/10--8/11--12-------12-12-12-13---------------|
A|--13-12-10/12-10-----------------------------------------------------|
E|---------------------------------------------------------------------|

e|---------------------------------------------------------------------|
B|---------------------------------------------------------------------|
G|---------------------------------------------------------------------|
D|--------------------5/8--7/10--8/11--12------------------------------|
A|--12-13-12-10/12-10--------------------------------------------------|
E|---------------------------------------------------------------------|

The 12/13 on D lasts 3x and on A lasts 6x
e|---------------------------------------------------------------------|
B|---------------------------------------------------------------------|
G|---------------------------------------12/6--------------------------|
D|------------------5/8--7/10--8/11--12-------12-12-12-13--12/13-------|
A|--13-12-10/12-10-----------------------------------------------12/13-|
E|---------------------------------------------------------------------|

e|---------------------------------------------------------------------|
B|---------------------------------------------------------------------|
G|--12-12--------------------------------------------------------------|
D|-----12/20-----------------------------------------------------------|
A|---------------------------------------------------------------------|
E|---------------------------------------------------------------------|


Guitar II starts at ~0:06
Listen for strumming
e|---------------------------------------------------------------------|
B|---------------------------------------------------------------------|
G|---------------------------------------------------------------------|
D|--11-10-8---12-13---10-11-10-6---------------------------------------|
A|--11-10-8---12-13---10-11-10-6---------------------------------------|
E|--9--8--6---10-11---8--9--8--8---------------------------------------|            
Submit corrections

↑ Back to top | Tablatures and chords for acoustic guitar and electric guitar, ukulele, drums are parodies/interpretations of the original songs. You may use it for private study, scholarship, research or language learning purposes only