Home » B » Breeders »

Breeders - Divine Hammer Chords

Artists:  A B C D E F G H I J K L M N O P Q R S T U V W X Y Z # 

Divine Hammer Chords

(ver. 1) Click to play this song!
Breeders
                
The Breeders


Main Riff:

	-10-10-10-11---10---
	-11-11-11-11---11---
	-10-10-10-10---10---
	--------------------
	--------------------
	--------------------


	Bb		Eb
	I'm just looking

			   Cm
	Just looking for a way around

	F			Bb
	It disappears this near

	Eb		   Cm	  F
 	You're the rod I'm water



Chorus:
	Bb		     Eb		Cm	F
	I'm just looking for the divine hammer

	Bb
	One divine hammer

	Bb
	One divine hammer



Solo (over Bb F Eb chords):

	----------------------------------------------
	----------------------------------------------
	----------------------------------------------
	-------8-10-12--12/10-10/8-8-7-8-7-7----------
	-6-8-10---------------------------------------
	----------------------------------------------

	-----------------------------------------------------------
	------------------------------------------------------------
	---------------------------------------8-8/10-10-10/12-12/15
	-------8-10-12--12/10-10/8-8-7-8-7-8/10---------------------
	-6-8-10-----------------------------------------------------
	------------------------------------------------------------
            
Submit corrections

↑ Back to top | Tablatures and chords for acoustic guitar and electric guitar, ukulele, drums are parodies/interpretations of the original songs. You may use it for private study, scholarship, research or language learning purposes only