Home » B » Breeders »

Breeders - Flipside Tabs

Artists:  A B C D E F G H I J K L M N O P Q R S T U V W X Y Z # 

Flipside Tabs

(ver. 2) Click to play this song!
Breeders
flipside


<Below are sections of the lead guitar part.  I did not tab every note since
these sections repeat.  Enjoy!>

--- start ---

 e---------------------|
 b--7-7-5-5-4-4--------|
 g--------------6-6-4--|
 d---------------------|
 a---------------------|
 e---------------------|

 e---------------|
 b---------------|
 g--8---8---8----|
 d----9---9---7--|
 a---------------|
 e---------------|

 e---------------------|
 b---------------------|
 g---------------------|
 d----6---6-6----6-----|
 a------------------4--|
 e---------------------|

 e-----------------|
 b--------------5--|
 g--6-5-6-5-6-6----|
 d-----------------|
 a-----------------|
 e-----------------|

 e------------------------------|
 b---------------7-7-5-5-4-4----|
 g--6-5-6-5-6-6--------------6--|
 d------------------------------|
 a------------------------------|
 e------------------------------|

 e------------------------------|
 b------------------------------|
 g--6-5-6-5-6-6--3-3-4-4-5-5-6--|
 d------------------------------|
 a------------------------------|
 e------------------------------|

 e--------------------|
 b--------------------|
 g--10----------10----|
 d-----11-11-11----8--|
 a--------------------|
 e--------------------|

--- end ---
            
Submit corrections

↑ Back to top | Tablatures and chords for acoustic guitar and electric guitar, ukulele, drums are parodies/interpretations of the original songs. You may use it for private study, scholarship, research or language learning purposes only