» » »

Breaking Benjamin - Until The End Bass

Artists:  A B C D E F G H I J K L M N O P Q R S T U V W X Y Z # 

Until The End Bass

(ver. 1) Click to play this song!
Breaking Benjamin
 Rating:
4/5 (4 votes)


 Until The End lessons Tabs too difficult? Try these video lessons and learn fast
 
                Breaking Benjamin
Until The End
Tuning A# F A# D#

Legend
h-hammer on
p-pull off

In the Phobia DVD Mark plays this song with a gauged 4 string bass.
I learned this song by ear but tabbed the notes where he played them.

Intro 00:00 Silent

Intro 00:07
D#|-----------------------------------------------------------------|
A#|-----------------------------------------------------------------|
 F|-----------------------------------------------------------------|
A#|--0-------0--0-----0------0322----0-------0--0----0---------0h1--|

Intro 00:14
D#|--------------------------------------------------------------------|
A#|--------------------------------------------------------------------|
 F|---------------------------------------------------------3h5-3h666--|
A#|--0-0--0--0-0-320-0-0--0--320320-0-0--0--0-0--0--0-0--0-------------|

Intro: 00:21
D#|--------------------------------------------------------------------|
A#|-----------------------------------------------------------0h2h3----|
 F|--------------------------------------------------------------------|
A#|--0-0--0--0-0-320-0-0--0--320320-0-0--0--0-0--0--0-0--0-0--------0--|

Verse 00:29
D#|--------------------------------------------------------|
A#|--------------------------------------------------------|
 F|--------0-----1----3--1-------------0-----1----3--1-----|
A#|-------------------------0---------------------------0--|

Verse Continued
D#|----------------------------------------------------------|
A#|----------------------------------------------------------|
 F|--------0-----1----3--1-------------0-----1-------33--11--|
A#|-------------------------0--------------------------------|

Chorus 00:57
D#|--------------------------------------------------|
A#|--------------------3-----------------------------|
 F|------------3----5----5--5----0--1---1--3----1----|
A#|--3----3-3----------------------------------------|x2

After Chorus 01:18
D#|--------------------------------------------------------------------|
A#|-----------------------------------------------------------0h2h3----|
 F|--------------------------------------------------------------------|
A#|--0-0--0--0-0-320-0-0--0--320320-0-0--0--0-0--0--0-0--0-0--------0--|

Verse 2 01:27
D#|--------------------------------------------------------|
A#|--------------------------------------------------------|
 F|--------0-----1----3--1-------------0-----1----3--1-----|
A#|-------------------------0---------------------------0--|

Verse 2 Continued
D#|----------------------------------------------------------|
A#|----------------------------------------------------------|
 F|--------0-----1----3--1-------------0-----1-------33--11--|
A#|-------------------------0--------------------------------|

Chorus 01:54
D#|--------------------------------------------------|
A#|--------------------3-----------------------------|
 F|------------3----5----5--5----0--1---1--3----1----|
A#|--3----3-3----------------------------------------|x3

Bridge 02:27
D#|----------------------------|
A#|----------------------------|
 F|---------0------1----3---1--|
A#|--0-------------------------|

Bridge Continued 02:34 *play 2 times*     -|
D#|---------------------------------------||
A#|---------------------------------------||
 F|---------------------------------------||
A#|--0--0--12----10h11p10--7----5h6p5--3--||
                                           |
D#|---------------------------------------||
A#|---------------------------------------||
 F|---------------------------------------||
A#|--0--0--12----10h12p10--7----6----5----||
                                          -|
Bass during Solo 02:48 *play 2 times*
D#|---------------------------------------|
A#|------3-2------3-2------3-2-----3---2--|
 F|-----------0--------1--------3----1----|
A#|--0------------------------------------|

Chorus 03:02
D#|--------------------------------------------------|
A#|--------------------3-----------------------------|
 F|------------3----5----5--5----0--1---1--3----1----|
A#|--3----3-3----------------------------------------|x5

Outro 03:56
D#|---------------------|
A#|---------------------|
 F|-----------0------1--|
A#|--0------------------|

Finished
            
Submit corrections



        Until The End lessons Hard to play? Try these video lessons and learn fast Until The End lessons
        
↑ Back to top | Tablatures and chords for acoustic guitar and electric guitar, ukulele, drums are parodies/interpretations of the original songs. You may use it for private study, scholarship, research or language learning purposes only