Home » B » Breaking Benjamin »

Breaking Benjamin - Topless Bass

Artists:  A B C D E F G H I J K L M N O P Q R S T U V W X Y Z # 

Topless Bass

(ver. 1) Click to play this song!
Breaking Benjamin
 Rating:
4/5 (4 votes)
                “Topless” by: Breaking Benjamin
Tuning: Drop C#

This song will be on their upcoming album “Phobia” but was also played live many times 
that, this was tabbed off of their live versions

F#|-----------------------------------------------------|
C#|-----------------------------------------------------|
G#|--rest-----------------------------------------------|
C#|----------------------------0-2--0-2--0-2--0-2-0-2h3-|
    Only guitar first time through
F#|-----------------------------------------------------|
C#|-----------------------------------------------------|
G#|-----------------------------------------------------|
C#|-0-2--0-2--0-2--0-2-0-2h3~--0-2--0-2--0-2--0-2-0-2h3-|

F#|-----------------------------------------------------|
C#|-----------------------------------------------------|
G#|-----------------------------------------------------|
C#|-0-2--0-2--0-2--0-2-0-2h3~--2-2--2-2--2-2------------|

F#|-----------------------------------------------------|
C#|-----------------------------------------------------|
G#|-----------------------------------------------------| x2
C#|-0-2--0-2--0-2--0-2-0-3-----0-2--0-2--0-2--0-2-0-3---|

F#|-----------------------------------------------------|
C#|-----------------------------------------------------|
G#|-----------------------------------------------------|
C#|-0-2--0-2--0-2--0-2-0-3-----0-2--0-2--0-2--0-2-0-2h3-|

F#|-----------------------------------------------------|
C#|-----------------------------------------------------|
G#|-----------------------------------------------------|
C#|-2-2--2-2--2-2--0-2-0-3-----2-2--2-2--2-2--0-2-0-3---|

F#|-----------------------------------------------------|
C#|-----------------------------------------------------|
G#|-----------------------------------------------------|
C#|-2-2--2-2--2-2--0-2-0-3-----2-2--2-2--2-2\-----------|

F#|------------------------------------------------------------|
C#|------------------------------------------------------------|
G#|--3--3-3-3--3-3--3-3--3-3-3-3--3--3-3-3--3-3--3-3--3-3-3-3--|
C#|------------------------------------------------------------|

F#|-----------------------------------------------------|
C#|-----------------------------------------------------|
G#|-----------------------------------------------------|
C#|-0-2--0-2--0-2--0-2-0-2h3~--0-2--0-2--0-2--0-2-0-2h3-|

F#|------------------------------------------------------------|
C#|------------------------------------------------------------|
G#|--3--3-3-3--3-3--3-3--3-3-3-3--3--3-3-3--3-3--3-3--3-3-3-3--|
C#|------------------------------------------------------------|

F#|-----------------------------------------------------|
C#|-----------------------------------------------------|
G#|-----------------------------------------------------|
C#|-0-2--0-2--0-2--0-2-0-2h3~--0-2--0-2--0-2--0-2-0-2h3-|

F#|-----------------------------------------------------|
C#|-----------------------------------------------------|
G#|-----------------------------------------------------|
C#|-0-2--0-2--0-2--0-2-0-2h3~--2-2--2-2--2-2------------|

F#|-----------------------------------------------------|
C#|-----------------------------------------------------|
G#|-----------------------------------------------------| x2
C#|-0-2--0-2--0-2--0-2-0-3-----0-2--0-2--0-2--0-2-0-3---|

F#|-----------------------------------------------------|
C#|-----------------------------------------------------|
G#|-----------------------------------------------------|
C#|-0-2--0-2--0-2--0-2-0-3-----0-2--0-2--0-2--0-2-0-2h3-|

F#|-----------------------------------------------------|
C#|-----------------------------------------------------|
G#|-----------------------------------------------------|
C#|-2-2--2-2--2-2--0-2-0-3-----2-2--2-2--2-2--0-2-0-3---|

F#|-----------------------------------------------------|
C#|-----------------------------------------------------|
G#|-----------------------------------------------------|
C#|-2-2--2-2--2-2--0-2-0-3-----2-2--2-2--2-2\-----------|

F#|------------------------------------------------------------|
C#|------------------------------------------------------------|
G#|--3--3-3-3--3-3--3-3--3-3-3-3--3--3-3-3--3-3--3-3--3-3-3-3--|
C#|------------------------------------------------------------|

F#|-----------------------------------------------------|
C#|-----------------------------------------------------|
G#|-----------------------------------------------------|
C#|-0-2--0-2--0-2--0-2-0-2h3~--0-2--0-2--0-2--0-2-0-2h3-|

F#|------------------------------------------------------------|
C#|------------------------------------------------------------|
G#|--3--3-3-3--3-3--3-3--3-3-3-3--3--3-3-3--3-3--3-3--3-3-3-3--|
C#|------------------------------------------------------------|

F#|-----------------------------------------------------|
C#|-----------------------------------------------------|
G#|-----------------------------------------------------|
C#|-0-2--0-2--0-2--0-2-0-2h3~--0-2--0-2--0-2--0-2-0-2h3-|

F#|-----------------------------------------------------|
C#|-----------------------------------------------------|
G#|-----------------------------------------------------|
C#|-0-2--0-2--0-2--0-2-0-3-----2-2--2-2--2-2\-----------|

F#|---------------------------------|
C#|---------------------------------| x3
G#|---------------------------------|
C#|-2-0-2-0-5-0-2-0-2-0-7-0-2-0-3-0-|

F#|---------------------------------|
C#|---------------------------------|
G#|---------------------------------|
C#|-2-0-2-0-5-0-2-0-2-0---7-----8---|

F#|---------------------------------|
C#|---------------------------------| x3
G#|---------------------------------|
C#|-2-0-2-0-5-0-2-0-2-0-7-0-2-0-3-0-|

F#|-------------------------------------------|
C#|-------------------------------------------|
G#|-------------------------------------------|
C#|-2-0-2-0-5-0-2-0-2-0---7-----8-----5-----3-|

F#|---------------------------------|
C#|---------------------------------| x3
G#|-------------------------3-3-2-2-|
C#|-0-0-2-2-3-3-2-2-0-0-2-2---------|

F#|---------------------------------|
C#|---------------------------------|
G#|---------------------------------|
C#|-0-0-2-2-3-3-2-2-0-0-2-2---------|

F#|------------------------------------------------------------|
C#|------------------------------------------------------------|
G#|--3--3-3-3--3-3--3-3--3-3-3-3--3--3-3-3--3-3--3-3--3-3-3-3--|
C#|------------------------------------------------------------|

F#|-----------------------------------------------------|
C#|-----------------------------------------------------|
G#|-----------------------------------------------------|
C#|-0-2--0-2--0-2--0-2-0-2h3~--0-2--0-2--0-2--0-2-0-2h3-|

F#|------------------------------------------------------------|
C#|------------------------------------------------------------|
G#|--3--3-3-3--3-3--3-3--3-3-3-3--3--3-3-3--3-3--3-3--3-3-3-3--|
C#|------------------------------------------------------------|

F#|-----------------------------------------------------|
C#|-----------------------------------------------------|
G#|-----------------------------------------------------|
C#|-0-2--0-2--0-2--0-2-0-2h3~--0-2--0-2--0-2--0-2-0-2h3-|

F#|----------------------------------------------------|
C#|----------------------------------------------------|
G#|----------------------------------------------------|
C#|-0-2--0-2--0-2--0-2-0-3-----2-2--2-2--2-2-----------|
            
Submit corrections

↑ Back to top | Tablatures and chords for acoustic guitar and electric guitar, ukulele, drums are parodies/interpretations of the original songs. You may use it for private study, scholarship, research or language learning purposes only