Home » B » Breaking Benjamin »

Breaking Benjamin - Rain Bass

Artists:  A B C D E F G H I J K L M N O P Q R S T U V W X Y Z # 

Rain Bass

(ver. 1) Click to play this song!
Breaking Benjamin
 Rating:
4/5 (4 votes)
                ----------------------------------------------------------------------------
                          RAIN - Breaking Benjamin
----------------------------------------------------------------------------


Tuning: Drop C (CADG)

Very easy song to play, best played on an acoustic bass (duh, it's an acoustic song)

Intro / Verse   X 3

G|--------------------|--------------------|
D|--------------------|--------------------|
A|--------------------|--------------------|
C|-0---0---0--5---5---|-0---0---0--5---5---|

G|--------------------|--------------------|
D|--------------------|--------------------|
A|--------------------|--------------------|
C|-0---0---0--9---9---|-7---7---7--5---5---|

Chorus  X 2

G|--------------------|--------------------|
D|--------------------|--------------------|
A|--------------------|--------------------|
C|-0---0---0--2---2---|-5---5---5--5---5---|

Verse  X 2

G|--------------------|--------------------|
D|--------------------|--------------------|
A|--------------------|--------------------|
C|-0---0---0--5---5---|-0---0---0--5---5---|

G|--------------------|--------------------|
D|--------------------|--------------------|
A|--------------------|--------------------|
C|-0---0---0--9---9---|-7---7---7--5---5---|

Chorus  X 4

G|--------------------|--------------------|
D|--------------------|--------------------|
A|--------------------|--------------------|
C|-0---0---0--2---2---|-5---5---5--5---5---|

Bridge

G|--------------------|--------------------|
D|--------------------|--------------------|
A|--------------------|--------------------|
C|-9---9---9--5---5---|-4---4---4--5---5---|

G|--------------------|--------------------|
D|--------------------|--------------------|
A|--------------------|--------------------|
C|-9---9---9--5---5---|-7---7---7--5---5---|

G|--------------------|--------------------|
D|--------------------|--------------------|
A|--------------------|--------------------|
C|-9---9---9--5---5---|-4---4---4--5---5---|

G|--------------------|--------------------|
D|--------------------|--------------------|
A|--------------------|--------------------|
C|-9---9---9--5---5---|-7---7---7--7---7---|

Final Chorus / Outro

G|--------------------|--------------------|
D|--------------------|--------------------|
A|--------------------|--------------------|
C|-0---0---0--5---5---|-0---0---0--5---5---|

G|--------------------|--------------------|
D|--------------------|--------------------|
A|--------------------|--------------------|
C|-0---0---0--2---2---|-5---5---5--5---5-7-|

G|--------------------|--------------------|
D|--------------------|--------------------|
A|--------------------|--------------------|
C|-0---0---0--5---5---|-0---0---0--5---5---|

G|--------------------|--------------------|
D|--------------------|--------------------|
A|--------------------|--------------------|
C|-0---0---0--2---2---|-5---5---5--5---5---|

G|--------------------|--------------------|
D|--------------------|--------------------|
A|--------------------|--------------------|
C|-0---0---0--2---2---|-5---5---5--5---5---|

G|--------------------|--------------------|
D|--------------------|--------------------|
A|--------------------|--------------------|
C|-0---0---0--2---2---|-5~-----------------|


| /  slide up
| \  slide down
| h  hammer-on
| p  pull-off
| ~  hold note
| +  harmonic
| x  Mute note
============================================================================
            
Submit corrections

↑ Back to top | Tablatures and chords for acoustic guitar and electric guitar, ukulele, drums are parodies/interpretations of the original songs. You may use it for private study, scholarship, research or language learning purposes only