Home » B » Breaking Benjamin »

Breaking Benjamin - I Will Not Bow Bass

Artists:  A B C D E F G H I J K L M N O P Q R S T U V W X Y Z # 

I Will Not Bow Bass

(ver. 1) Click to play this song!
Breaking Benjamin
 Rating:
4/5 (4 votes)
                Breaking Benjamin               UPDATED 12/10/2009
I Will Not Bow
Tuning Bb F Bb Eb

Legend
h-hammer on          p-pull off        /-slide up        \-slide down

Intro: Bass Guitar (clean) MARK
Eb|--------------------------------------------------------------------------|
Bb|--------------------------------------------------------------------------|
 F|--------------------------------------3-----------------------------------|
Bb|--0--2----2---2--3--2----2---2--0--2------0--2----2--3--2---2----2--0--5--|

Intro:
Eb|--------------------------------------------------------------------------|
Bb|--------------------------------------------------------------------------|
 F|--------------------------------------------------------------------------|
Bb|--10--------10--------10---10------7---7---------7--0--3--0--2------------|

Verse 1: Bass Guitar  
Eb|--------------------------------------------------------------------------|
Bb|---------------------------------------------5----------------------------|
 F|--------7------------------------------3--3-------------------------------|
Bb|-(2)-2----------------------------------------------------0---------------|

Verse 1: Bass Guitar  
Eb|--------------------------------------------------------------------------|
Bb|---------------------------------------------5----------------------------|
 F|--------7------------------------------3--3-------------------------------|
Bb|--2--2----------------------------------------------------0---------------|

Verse 1: Bass Guitar  
Eb|--------------------------------------------------------------------------|
Bb|--------------------------------------------------------------------------|
 F|------------------------5p0-----------------------------5-----------------|
Bb|--2---2---2-------0h5h7-----5h7---2---2---2-------0h5h7-------------------|

Verse 1: Bass Guitar  
Eb|--------------------------------------------------------------------------|
Bb|--------------------------------------------------------------------------|
 F|--3---3---3---------------------------------------------------------------|
Bb|------------------0h2p0-5\4-0h2---0---0---0-------0-5-0-4/5\4-------------|

Verse 1: Bass Guitar  
Eb|--------------------------------------------------------------------------|
Bb|--------------------------------------------------------------------------|
 F|------------------------5p0-----------------------------5-----------------|
Bb|--2---2---2-------0h5h7-----5h7---2---2---2-------0h5h7-------------------|

Verse 1:  Bass Guitar  
Eb|--------------------------------------------------------------------------|
Bb|--------------------------------------------------------------------------|
 F|--3---3---3---------------------------------------------------------------|
Bb|------------------0h2p0-5\4-0h2---0---0---0-------0-5-0-4/5\4-------------|

Pre Chorus:  Bass Guitar  
Eb|--------------------------------------------------------------------------|
Bb|--------------------------------------------------------------------------|
 F|--3----------------5----------------3----------------5--------------------|
Bb|-----------------------------------------------------------------0--------|

Chorus: Bass Guitar PLAY CHORUS 2 TIMES
Eb|--------------------------------------------------------------------------|
Bb|-------------------------------------------------5--------------5---4-----|
 F|---------------/7---------------------3---3---3------3---3---3----3---3---|
Bb|--2----2----2---------0---0---0--4-5--------------------------------------|

Post Chorus: Bass Guitar  
Eb|--------------------------------------------------------------------------|
Bb|--------------------------------------------------------------------------|
 F|--------------------------------------3-----------------------------------|
Bb|--0--2----2---2--3--2----2---2--0--2------0--2----2--3--2---2----2--0--5--|

Post Chorus: Bass Guitar  
Eb|--------------------------------------------------------------------------|
Bb|--------------------------------------------------------------------------|
 F|--------------------------------------------------------------------------|
Bb|--10--------10--------10---10------7---7---------7--------3--2------------|

Verse 2: Bass Guitar  
Eb|--------------------------------------------------------------------------|
Bb|---------------------------------------------5----------------------------|
 F|--------7------------------------------3--3-------------------------------|
Bb|-(2)-2----------------------------------------------------0---------------|

Verse 2: Bass Guitar  
Eb|--------------------------------------------------------------------------|
Bb|--------------------------------------------------------------------------|
 F|--------------------------------------------------------------------------|
Bb|--0-2-2--0-2-2-2--0-2----0--4--5--10-10-10-12-10-10-10-12-10-----0--5--4--|

Pre Chorus: Bass Guitar  
Eb|--------------------------------------------------------------------------|
Bb|-------------4-5-4----------5-4----------------4-5-4----------------------|
 F|--3----------------5----------------3----------------5--------------------|
Bb|-----------------------------------------------------------------0--------|

Chorus: Bass Guitar
Eb|--------------------------------------------------------------------------|
Bb|---------------------------------4-5-------------5--------------5---4-----|
 F|--7--------7\-------------------------3---3---3------3---3---3----3---3---|
Bb|------2--------2------0---0---0-------------------------------------------|

Chorus: Bass Guitar
Eb|--------------------------------------------------------------------------|
Bb|---------------------------------4-5-------------5--------------5---4-----|
 F|--7--------7\-------------------------3---3---3------3---3---3----3---3---|
Bb|------2--------2------0---0---0-------------------------------------------|

Chorus: Bass Guitar
Eb|--------------------------------------------------------------------------|
Bb|---------------------------------4-5-------------5--------------5---4-----|
 F|--------------------------------------3---3---3------3---3---3----3---3---|
Bb|--0--2--2--0--2--2----0---0---0-------------------------------------------|

Chorus: Bass Guitar
Eb|--------------------------------------------------------------------------|
Bb|----------------4-5-------------5-7-5\4-------------5---------------------|
 F|-----------------------------------------3---3---3------------------------|
Bb|--2----2----2---------0---0---0-------------------------10--9--7--9--7\---|

Bridge: Bass Guitar 
Eb|--------------------------------------------------------------------------|
Bb|--------------------------------------------------------------------------|
 F|--------------------------------------------------------------------------|
Bb|---------------------------------------------------------2--5--0----------|

Bridge: Bass Guitar 
Eb|--------------------------------------------------------------------------|
Bb|----------------------------3-2-------------------------------2/3\2-5-----|
 F|-----------1--0-----------------5\-----------1--0-------------------------|
Bb|--2--5--2--------3--2--5--2---------2--5--2--------3--2--5--2-------------|

Bridge: Bass Guitar 
Eb|--------------------------------------------------------------------------|
Bb|----------------------------3-2-------------------------------------------|
 F|-----------1--0-----------------5\-----------1--0-------------------------|
Bb|--2--5--2--------3--2--5--2---------2--5--2--------3--2--5--2---0-0-0-3---|

Chorus: Bass Guitar
Eb|--------------------------------------------------------------------------|
Bb|-------------------------------------------------5--------------5---4-----|
 F|--------------------------------------3---3---3------3---3---3----3---3---|
Bb|--2----2----2---------0---0---0-------------------------------------------|

Chorus: Bass Guitar
Eb|--------------------------------------5---5---5---------------------------|
Bb|--------------------------------5/7-5------------5--------------5---4-----|
 F|--7--------7\---------------------------------------3-2--3---3------------|
Bb|------2--------2------0---0---0-------------------------------------------|

Chorus: Bass Guitar
Eb|--------------------------------------------------------------------------|
Bb|-------------------------------------------------5--------------5---4-----|
 F|-----------------7--------------------3---3---3-----3-2--3---3------------|
Bb|--0--2--2--0--2-------0---0---0--4-5--------------------------------------|

Chorus: Bass Guitar
Eb|-----------------------------------------5---5---5------------------------|
Bb|---------------4-5-4--------------------------------5---------------------|
 F|--------------------------------------------------------3--2--0--2--0-----|
Bb|--2----2----2---------0---0---0--4-5--------------------------------------|

Outro: Bass Guitar  
Eb|--------------------------------------------------------------------------|
Bb|--------------3-----------------------------------------------------------|
 F|--------------------------------------------------------------------------|
Bb|--2h3p2--0--2----2--0--3---2h3p2--0--2--8-7p0--5-7p0--3h5--2--------------|

Finished
            
Submit corrections

↑ Back to top | Tablatures and chords for acoustic guitar and electric guitar, ukulele, drums are parodies/interpretations of the original songs. You may use it for private study, scholarship, research or language learning purposes only