» » »

Breaking Benjamin - Forget It Tabs

Artists:  A B C D E F G H I J K L M N O P Q R S T U V W X Y Z # 

Forget It Tabs

(ver. 1) Click to play this song!
Breaking Benjamin
 Rating:
4.3/5 (20 votes)

 Forget It lessons Tabs too difficult? Try these video lessons and learn fast
 
                [Intro]
 G1
D#|-------------------------------------------------------------------------|
A#|-------------------------------------------------------------------------|
F#|-------------------------------------------------------------------------|
C#|--6-6-6-6-6-6-6-6---9-9-9-9-9-9-9-9--------------------------------------|
G#|--2-2-2-2-2-2-2-2---6-6-6-6-6-6-6-6--------------------------------------|
C#|--2-2-2-2-2-2-2-2---6-6-6-6-6-6-6-6--------------------------------------|
     * * * * * * * *   * * * * * * * *
G2
D#|--4-4-4-4-4-4-4-4--------------------------------------------------------|
A#|---4-4-4-4-4-4-4-4-------------------------------------------------------|
F#|-------------------------------------------------------------------------|
C#|-------------------------------------------------------------------------|
G#|-------------------------------------------------------------------------|
C#|-------------------------------------------------------------------------|


[Verse]
 G1 & G2
D#|-------------------------------------------------------------------------|
A#|-------------------------------------------------------------------------|
F#|-----------------8-8-8-8-8-8-8-8-6-6-6-6-6-6-6-6-7-7-7-7-7-7-7-7---------|
C#|-6-6-6-6-6-6-6-6-9-9-9-9-9-9-9-9-6-6-6-6-6-6-6-6-7-7-7-7-7-7-7-7---------|
G#|-2-2-2-2-2-2-2-2-6-6-6-6-6-6-6-6-4-4-4-4-4-4-4-4-5-5-5-5-5-5-5-5---------|
C#|-2-2-2-2-2-2-2-2-6-6-6-6-6-6-6-6-----------------------------------------|
    * * * * * * * * * * * * * * * * * * * * * * * * * * * * * * * *

D#|-----------------------------------------------------------------------------------------|
A#|-----------------------------------------------------------------------------------------|
F#|-----------------9--9--9--9--9--9--9--9--7-7-7-7-7-7-7-7---------------------------------|
C#|-7-7-7-7-7-7-7-7-10-10-10-10-10-10-10-10-7-7-7-7-7-7-7-7-5-5-5-5-5-5-5-5-7-7-7-7-7-7-7-7-|
G#|-3-3-3-3-3-3-3-3-7--7--7--7--7--7--7--7--5-5-5-5-5-5-5-5-1-1-1-1-1-1-1-1-3-3-3-3-3-3-3-3-|
C#|-3-3-3-3-3-3-3-3-7--7--7--7--7--7--7--7------------------1-1-1-1-1-1-1-1-3-3-3-3-3-3-3-3-|
    * * * * * * * * *  *  *  *  *  *  *  *  * * * * * * * * * * * * * * * * * * * * * * * * 

D#|--------------------------------------------------------------------|
A#|--------------------------------------------------------------------|
F#|-9--9--9--9--9--9--9--9--7-7-7-7-7-7-7-7-3-3-3-3-5-5-5-5------------|
C#|-10-10-10-10-10-10-10-10-7-7-7-7-7-7-7-7-3-3-3-3-5-5-5-5------------|
G#|-7--7--7--7--7--7--7--7--5-5-5-5-5-5-5-5-1-1-1-1-3-3-3-3------------|
C#|-7--7--7--7--7--7--7--7---------------------------------------------|
    * * * * * * * * * * * * * * * * * * * * * * * * * * * *


G1

D#|-------------------------------------------------------------------------|
A#|-------------------------------------------------------------------------|
F#|-----------------9--9--9--9--9--9--9--9--7-7-7-7-7-7-7-7-----------------|
C#|-7-7-7-7-7-7-7-7-10-10-10-10-10-10-10-10-7-7-7-7-7-7-7-7-8-8-8-8-8-8-8-8-|
G#|-3-3-3-3-3-3-3-3-7--7--7--7--7--7--7--7--5-5-5-5-5-5-5-5-8-8-8-8-8-8-8-8-|
C#|-3-3-3-3-3-3-3-3-7--7--7--7--7--7--7--7------------------8-8-8-8-8-8-8-8-|

G2
D#|------------------------------------------------------------------------------------------------------|
A#|------------------------------------------------------------------------------------------------------|
F#|--12--12--12--12--10--10--10--10--9--9--9--9--9--9--9--9--12--12--12--12--10--10--10--10---10-10-10---|
C#|10--10--10--10--10--10--10--10--10-10-10-10-10-10-10-10-10--10--10--10--10--10--10--10-10-10-10-10-10-|
G#|------------------------------------------------------------------------------------------------------|
C#|------------------------------------------------------------------------------------------------------|

G1 & G2

D#|---------------------------------------------------------------------------|
A#|---------------------------------------------------------------------------|
F#|-----------------10-10-10-10-10-10-10-10-8-8-8-8-8-8-8-8-9-9-9-9-9-9-9-9---|
C#|-7-7-7-7-7-7-7-7-11-11-11-11-11-11-11-11-8-8-8-8-8-8-8-8-9-9-9-9-9-9-9-9---|
G#|-4-4-4-4-4-4-4-4-8--8--8--8--8--8--8--8--6-6-6-6-6-6-6-6-7-7-7-7-7-7-7-7---|
C#|-4-4-4-4-4-4-4-4-8--8--8--8--8--8--8--8------------------------------------|
    * * * * * * * * *  *  *  *  *  *  *  *  * * * * * * * * * * * * * * * *

[Chorus]

G1: Ben

D#|---------------------------------------------------------------------------------|
A#|---------------------------------------------------------------------------------|
F#|-----------------11-11-11-11-11-11-11-11-9-9-9-9-9-9-9-9-12-12-12-12-12-12-12-12-| x2
C#|-9-9-9-9-9-9-9-9-12-12-12-12-12-12-12-12-9-9-9-9-9-9-9-9-12-12-12-12-12-12-12-12-|
G#|-5-5-5-5-5-5-5-5-9--9--9--9--9--9--9--9--7-7-7-7-7-7-7-7-10-10-10-10-10-10-10-10-|
C#|-5-5-5-5-5-5-5-5-9--9--9--9--9--9--9--9------------------10-10-10-10-10-10-10-10-|

D#|------------------------------------------------------------------------------------------------|
A#|------------------------------------------------------------------------------------------------|
F#|---14--14--14--12--12--12--12--11--11--11--11--14--14--14--14--12--12--12--12--12--12--12--12---|
C#|-12--12--12--12--12--12--12--12--12--12--12--12--12--12--12--12--12--12--12--12--12--12--12--12-|
G#|------------------------------------------------------------------------------------------------|
C#|------------------------------------------------------------------------------------------------|

[Verse]

G1&G2

D#|-------------------------------------------------------------------------------------------------|
A#|-------------------------------------------------------------------------------------------------|
F#|-8--8--8--8--8--8--8--8--12-12-12-12-12-12-12-12-10-10-10-10-10-10-10-10-11-11-11-11-11-11-11-11-|
C#|-10-10-10-10-10-10-10-10-13-13-13-13-13-13-13-13-10-10-10-10-10-10-10-10-11-11-11-11-11-11-11-11-|
G#|-6--6--6--6--6--6--6--6--10-10-10-10-10-10-10-10-8--8--8--8--8--8--8--8--9--9--9--9--9--9--9--9--|
C#|-6--6--6--6--6--6--6--6--10-10-10-10-10-10-10-10-------------------------------------------------| 
    *  *  *  *  *  *  *  *  *  *  *  *  *  *  *  *  *  *  *  *  *  *  *  *  *  *  *  *  *  *  *  * 

[Outro]

G1: Ben

D#|-------------------------------------------------------------------------------------------------|
A#|-------------------------------------------------------------------------------------------------|
F#|-9--9--9--9--9--9--9--9--13-13-13-13-13-13-13-13-11-11-11-11-11-11-11-11-14-14-14-14-14-14-14-14-| repeat
C#|-11-11-11-11-11-11-11-11-14-14-14-14-14-14-14-14-11-11-11-11-11-11-11-11-16-16-16-16-16-16-16-16-| til end
G#|-7--7--7--7--7--7--7--7--11-11-11-11-11-11-11-11-9--9--9--9--9--9--9--9--12-12-12-12-12-12-12-12-|
C#|-7--7--7--7--7--7--7--7--11-11-11-11-11-11-11-11-------------------------12-12-12-12-12-12-12-12-|

G2: Aaron Fink

D#|-12--12--12--12--12--12--14--14--12--12--12--12--12--14--14--14--14--14--14--14---|
A#|---14--14--14--14--14--14--14--14--14--14--14--14--14--14--14--14--14--14--14--14-|
F#|----------------------------------------------------------------------------------|
C#|----------------------------------------------------------------------------------|
G#|----------------------------------------------------------------------------------|
C#|----------------------------------------------------------------------------------|

D#|-12--12--12--12--14--14--14--14--14--14--14--14-----------------------------|
A#|---14--14--14--14--14--14--14--14--14--14--14--14---------------------------|
F#|----------------------------------------------------------------------------| x2 2/3
C#|----------------------------------------------------------------------------|
G#|----------------------------------------------------------------------------|
C#|----------------------------------------------------------------------------|

D#|-17--17--17--17--17--17--17--17------------------|
A#|---------------------------------------12--------|
F#|---14--14--14--14--14--14--14--14-13-14--14-x7---|
C#|-------------------------------------------------|
G#|-------------------------------------------------|
C#|-------------------------------------------------|

D#|-----------------------------------------------------17-17------------------|
A#|-15------14--14--15--15--17--17--15--15--14--14--15-----17------------------|
F#|---14-x4---14--14--14--14--14--14--14--14--14--14--14---14------------------|
C#|----------------------------------------------------------------------------|
G#|----------------------------------------------------------------------------|
C#|----------------------------------------------------------------------------|

            
Submit corrections


        Forget It lessons Hard to play? Try these video lessons and learn fast Forget It lessons
        
↑ Back to top | Tablatures and chords for acoustic guitar and electric guitar, ukulele, drums are parodies/interpretations of the original songs. You may use it for private study, scholarship, research or language learning purposes only