Home » B » Breaking Benjamin »

Breaking Benjamin - Evil Angel Bass

Artists:  A B C D E F G H I J K L M N O P Q R S T U V W X Y Z # 

Evil Angel Bass

(ver. 1) Click to play this song!
Breaking Benjamin
 Rating:
4.3/5 (16 votes)
                Intro 0:04
D#|-------------------------------------------------------------------------------------------------|
A#|-------------------------------------------------------------------------------------------------|
F |---------------------------------------------5---------------------------------------------------|
A#|-0h2---2---2-5p2-0h2-3p2-0h2---2---2-0---0-------0h2---2---2-5p2-0h2-3p2-0h2---2---2-0---0---0---|
    1 + 2 + 3 + 4 + 5 + 6 + 1 + 2 + 3 + 4 + 5 + 6 + 1 + 2 + 3 + 4 + 5 + 6 + 1 + 2 + 3 + 4 + 5 + 6 + 

D#|-------------------------------------------------------------------------------------------------|
A#|-------------------------------------------------------------------------------------------------|
F |---------------------------------------------5---------------------------------------------------|
A#|-0h2---2---2-5p2-0h2-3p2-0h2---2---2-0---0-------0h2---2---2-5p2-0h2-3p2-0h2---2---2-0---0---0---|
    1 + 2 + 3 + 4 + 5 + 6 + 1 + 2 + 3 + 4 + 5 + 6 + 1 + 2 + 3 + 4 + 5 + 6 + 1 + 2 + 3 + 4 + 5 + 6 + 

Verse 0:21
D#|-------------------------------------------------------------------------------------------------|
A#|-------------------------5-----------------------------------------------7-----------------------|
F |-3-----------------------------------3---------/-5-----------------------------------5-----------|
A#|-------------------------------------------------------------------------------------------------|
    1 + 2 + 3 + 4 + 5 + 6 + 1 + 2 + 3 + 4 + 5 + 6 + 1 + 2 + 3 + 4 + 5 + 6 + 1 + 2 + 3 + 4 + 5 + 6 + 

D#|-------------------------------------5-----------------------------------------------7-9-7-7-9-7-|
A#|-------------------------5-----------------------------------------------7-----------------------|
F |-3---------------------------------------------/-5-----------------------------------------------|
A#|-------------------------------------------------------------------------------------------------|
    1 + 2 + 3 + 4 + 5 + 6 + 1 + 2 + 3 + 4 + 5 + 6 + 1 + 2 + 3 + 4 + 5 + 6 + 1 + 2 + 3 + 4 + 5 + 6 + 

Pre Chorus 0:38
D#|-------------------------5-------5-------------------------------7-------7-----------7-------7---|
A#|-------------5-----------------------5-------------------------------7-------------------7-------|
F |-3-----------------------------------------------5-----------------------------------------------|
A#|-------------------------------------------------------------------------------------------------|
    1 + 2 + 3 + 4 + 5 + 6 + 1 + 2 + 3 + 4 + 5 + 6 + 1 + 2 + 3 + 4 + 5 + 6 + 1 + 2 + 3 + 4 + 5 + 6 + 

D#|-------------------------5-------5-------------------------------7-------7-------7---7-------7---|
A#|-------------5-----------------------5-------------------------------7-------------------7-------|
F |-3-----------------------------------------------5-----------------------------------------------|
A#|-------------------------------------------------------------------------------------------------|
    1 + 2 + 3 + 4 + 5 + 6 + 1 + 2 + 3 + 4 + 5 + 6 + 1 + 2 + 3 + 4 + 5 + 6 + 1 + 2 + 3 + 4 + 5 + 6 + 

Chorus 0:54
D#|-------------------------------------------------------------------------------------------------|
A#|-2-----------2---4---5---------------------------------------------------------------------------|
F |-------------------------5-----------5---0---5---3-----3---3-3-----3-3-5-------------------------|
A#|-------------------------------------------------------------------------5-----5---5-0-----------|
    1 + 2 + 3 + 4 + 5 + 6 + 1 + 2 + 3 + 4 + 5 + 6 + 1 + 2 + 3 + 4 + 5 + 6 + 1 + 2 + 3 + 4 + 5 + 6 + 

D#|-------------------------------------------------------------------------------------------------|
A#|-2-----------2---4---5---------------------------------------------------------------------------|
F |-------------------------5-----------5---0---5---3-----3---3-3-----3-3-5---------------------5---|
A#|-------------------------------------------------------------------------5-----5---5-0---0-------|
    1 + 2 + 3 + 4 + 5 + 6 + 1 + 2 + 3 + 4 + 5 + 6 + 1 + 2 + 3 + 4 + 5 + 6 + 1 + 2 + 3 + 4 + 5 + 6 + 

Interlude 1:11
D#|-------------------------------------------------------------------------------------------------|
A#|-------------------------------------------------------------------------------------------------|
F |---------------------------------------------5---------------------------------------------------|
A#|-0h2---2---2-5p2-0h2-3p2-0h2---2---2-0---0-------0h2---2---2-5p2-0h2-3p2-0h2---2---2-0-----------|
    1 + 2 + 3 + 4 + 5 + 6 + 1 + 2 + 3 + 4 + 5 + 6 + 1 + 2 + 3 + 4 + 5 + 6 + 1 + 2 + 3 + 4 + 5 + 6 +
 
Verse 1:20
D#|-------------------------5-----------------------------------------------------------7-----------|
A#|-------------5-----------------------5-----------------------------------7-----------------------|
F |-3---------------------------------------------/-5-----------------------------------------------|
A#|-------------------------------------------------------------------------------------------------|
    1 + 2 + 3 + 4 + 5 + 6 + 1 + 2 + 3 + 4 + 5 + 6 + 1 + 2 + 3 + 4 + 5 + 6 + 1 + 2 + 3 + 4 + 5 + 6 + 

D#|-------------------------5---------------------/-7---------------7-------------------7h9p7-7h9p7-|
A#|-------------5-----------------------5-------------------------------7-------------7-------------|
F |-3-----------------------------------------------------------------------5-----------------------|
A#|-------------------------------------------------------------------------------------------------|
    1 + 2 + 3 + 4 + 5 + 6 + 1 + 2 + 3 + 4 + 5 + 6 + 1 + 2 + 3 + 4 + 5 + 6 + 1 + 2 + 3 + 4 + 5 + 6 + 

Pre Chorus 1:36
D#|-------------------------5-----------5-------5---------------------------------------------------|
A#|-------------5---------------------------5-------------------7---------------------------7-------|
F |-3-----------------------------------------------5-----------------------5-----------5-------5---|
A#|-------------------------------------------------------------------------------------------------|
    1 + 2 + 3 + 4 + 5 + 6 + 1 + 2 + 3 + 4 + 5 + 6 + 1 + 2 + 3 + 4 + 5 + 6 + 1 + 2 + 3 + 4 + 5 + 6 + 

D#|-------------------------5-----------5---5-------|
A#|-------------5-------------------------------5---|
F |-3-----------------------------------------------|
A#|-------------------------------------------------|
    1 + 2 + 3 + 4 + 5 + 6 + 1 + 2 + 3 + 4 + 5 + 6 + 

D#|-------------------------16----14-11-14-11----11-------------|
A#|-12----------12--12--14--------------------14----14-12-14-12-|
F |-------------------------------------------------------------|
A#|-------------------------------------------------------------|
    1 + 2 + 3 + 4 + 5 + 6 + 1  +  2  +  3  +  4  +  5  +  6  +  
 
Chorus 1:53
D#|-------------------------------------------------------------------------------------------------|
A#|-2-----2---0-2---4---5---------------------------------------------------------------------------|
F |-------------------------5-----5---5-5-------5---3-----3---3-3-----3-3-5-------------------------|
A#|-----------------------------------------0-------------------------------5-----5---5-0---0---0---|
    1 + 2 + 3 + 4 + 5 + 6 + 1 + 2 + 3 + 4 + 5 + 6 + 1 + 2 + 3 + 4 + 5 + 6 + 1 + 2 + 3 + 4 + 5 + 6 + 

D#|-------------------------------------------------------------------------------------------------|
A#|-2-----2---0-2---4---5---------------------------------------------------------------------------|
F |-------------------------5-----5---5-5---0---5---3-----3---3-3-----3-3-5-------------------------|
A#|-------------------------------------------------------------------------5-----5---5-0---0---0---|
    1 + 2 + 3 + 4 + 5 + 6 + 1 + 2 + 3 + 4 + 5 + 6 + 1 + 2 + 3 + 4 + 5 + 6 + 1 + 2 + 3 + 4 + 5 + 6 + 

2:10
D#|-------------------------------------------------------------------------------------------------|
A#|-------------------------------------------------------------------------------------------------|
F |-------------------------2-----2---2-2-------2---3-----3---3-3-------3---------------------------|
A#|-5-----5---5-5-----5-3-5-------------------------------------------------5-----5---5-0---0---0---|
    1 + 2 + 3 + 4 + 5 + 6 + 1 + 2 + 3 + 4 + 5 + 6 + 1 + 2 + 3 + 4 + 5 + 6 + 1 + 2 + 3 + 4 + 5 + 6 + 

D#|-------------------------------------------------------------------------------------------------|
A#|-------------------------------------------------------------------------------------------------|
F |-------------------------2-----------2---0---2---3-----------3-------3-5-------------------------|
A#|-5-----5---5-5---3---5---------------------------------------------------5-----------0---0---0---|
    1 + 2 + 3 + 4 + 5 + 6 + 1 + 2 + 3 + 4 + 5 + 6 + 1 + 2 + 3 + 4 + 5 + 6 + 1 + 2 + 3 + 4 + 5 + 6 + 

Bridge 2:26
D#|-------------------------------------------------------------------------------------------------|
A#|-------------------------------------------------------------------------------------------------|
F |-------------------------------------------------------------------------------------------------|
A#|---2---2-------2---2-------2---2-----0h2-5p2-0h2---0---0-------0---0-------3---3-----0h2-5p2-0h2-|
    1 + 2 + 3 + 4 + 5 + 6 + 1 + 2 + 3 + 4 + 5 + 6 + 1 + 2 + 3 + 4 + 5 + 6 + 1 + 2 + 3 + 4 + 5 + 6 + 

D#|-------------------------------------------------------------------------------------------------|
A#|-------------------------------------------------------------------------------------------------|
F |-------------------------------------------------------------------------------------------------|
A#|---2---2-------2---2-------2---2-----0h2-5p2-0h2---0---0-------0---0-------3---3-----0h2-5p2-0h2-|
    1 + 2 + 3 + 4 + 5 + 6 + 1 + 2 + 3 + 4 + 5 + 6 + 1 + 2 + 3 + 4 + 5 + 6 + 1 + 2 + 3 + 4 + 5 + 6 + 

D#|-------------------------------------------------------------------------------------------------|
A#|-------------------------------------------------------------------------------------------------|
F |-------------------------------------------------------------------------------------------------|
A#|---2---2-------2---2-------2---2-----0h2-5p2-0h2---0---0-------0---0-------3---3-----0h2-5p2-0h2-|
    1 + 2 + 3 + 4 + 5 + 6 + 1 + 2 + 3 + 4 + 5 + 6 + 1 + 2 + 3 + 4 + 5 + 6 + 1 + 2 + 3 + 4 + 5 + 6 + 

Rest

Chorus 2:56
D#|-------------------------------------------------------------------------------------------------|
A#|-------------------------------------------------------------------------------------------------|
F |-------------------------------------------------3-----3---3-3-----3-3-5-------------------------|
A#|-2-2---2-2---2---2---2---0-0---0-0---0---0---0---------------------------5-----5---5-0---0---0---|
    1 + 2 + 3 + 4 + 5 + 6 + 1 + 2 + 3 + 4 + 5 + 6 + 1 + 2 + 3 + 4 + 5 + 6 + 1 + 2 + 3 + 4 + 5 + 6 + 

D#|-------------------------------------------------------------------------------------------------|
A#|-------------------------------------------------------------------------------------------------|
F |---------------------------------------------5-5-3-----3---3-3-----3-3-5-------------------------|
A#|-2-2---2-2---2---2---2---0-0---0-0---0---0-------------------------------5-----5---5-0---0---0---|
    1 + 2 + 3 + 4 + 5 + 6 + 1 + 2 + 3 + 4 + 5 + 6 + 1 + 2 + 3 + 4 + 5 + 6 + 1 + 2 + 3 + 4 + 5 + 6 + 

3:12
D#|-------------------------------------------------------------------------------------------------|
A#|-------------------------------------------------------------------------------------------------|
F |-------------------------2-----2---2-2-------2---3-----3---3-3-----3-3-5-------------------------|
A#|-5-----5---5-5---3---5---------------------------------------------------5-----5-----0---0---0---|
    1 + 2 + 3 + 4 + 5 + 6 + 1 + 2 + 3 + 4 + 5 + 6 + 1 + 2 + 3 + 4 + 5 + 6 + 1 + 2 + 3 + 4 + 5 + 6 + 

D#|-------------------------------------------------------------------------------------------------|
A#|-------------------------------------------------------------------------------------------------|
F |-------------------------2-----2---2-2---0---2---3-----3-----3-----3-3-5-------------------------|
A#|-5-----5---5-5---3---5---------------------------------------------------5-----5---5-0---0---0---|
    1 + 2 + 3 + 4 + 5 + 6 + 1 + 2 + 3 + 4 + 5 + 6 + 1 + 2 + 3 + 4 + 5 + 6 + 1 + 2 + 3 + 4 + 5 + 6 + 

Outro
D#|-------------------------------------------------------------------------------------------------|
A#|-------------------------------------------------------------------------------------------------|
F |-------------------------------------------------------------------------------------------------|
A#|---2---2-------2---2-------2---2-------2---2-------2---2-------2---2-------2---2-2-2-2-----------|
    1 + 2 + 3 + 4 + 5 + 6 + 1 + 2 + 3 + 4 + 5 + 6 + 1 + 2 + 3 + 4 + 5 + 6 + 1 + 2 + 3 + 4 + 5 + 6 +             
Submit corrections

↑ Back to top | Tablatures and chords for acoustic guitar and electric guitar, ukulele, drums are parodies/interpretations of the original songs. You may use it for private study, scholarship, research or language learning purposes only