» » »

Breaking Benjamin - Defeated Tabs

Artists:  A B C D E F G H I J K L M N O P Q R S T U V W X Y Z # 

Defeated Tabs

(ver. 1) Click to play this song!
Breaking Benjamin
 Rating:
4/5 (4 votes)

 Defeated  lessons Tabs too difficult? Try these video lessons and learn fast
 
                Tuning: Drop Bb

INTRO: (0:00) 
Guitar 1 
C-------------------------------------------------------------------------|
G-------------------------------------------------------------------------|
D#------------------------------------------------------------------------|
A#------------------------------------------------------------------------|
F--0---10-9---------10-9--------------0---10-9---------10-9---------------|
A#-0--------13\12~-------0-10-0-13\12-0--------13\12~-------13-10-0-10h13-|

C-------------------------------------------------------------------------|
G-------------------------------------------------------------------------|
D#------------------------------------------------------------------------|
A#-----------------------------------------------------X-1---X-3----------|
F--0---10-9---------10-9--------------0---10-9---------X-1---X-3----------|
A#-0--------13\12~-------0-10-0-13\12-0--------13\12~--X-1---X-3----------|
                                                           Slip away!
VERSE: (0:12) 
Guitar 2
C----------------------------------------------------------------------------------|
G----------------------------------------------------------------------------------|
D#------------10----------------------10-------------------10----------------------|
A#------8------------8----------8----------8---------8----------8-------7-8-10-8-7-|
F--10----------------------10--------------------6--------------------8------------| x2
A#---------------------------------------------------------------------------------|
   *                       *                     *                    *

Guitar 1 (0:43)
C---------------------------------------------------------|
G---------------------------------------------------------|
D#--------------------------------------------------------|
A#----------------------------------------------1---------|
F-----------------------------------------------1---------| let ring
A#----------------------------------------------1---------|

Guitar 2 (0:43)
C---------------------------------------------------------|
G---------------------------------------------------------|
D#-----------10-------------2---3---5---3---2---0---------|
A#-----8------------8-----3-------------------------------|
F--6------------------------------------------------------|
A#--------------------------------------------------------|
   *     And I'll be the fire..   Dries the flood..  

CHORUS: (0:43) (Both guitars played correspondingly with each other)
Guitar 1
C-------------------------------------------------------------------------|
G-------------------------------------------------------------------------|
D#------------------------------------------------------------------------|
A#-X-X-----X-5---5--------------------3-3-----------1---1-1-1-1-1---3-3---|
F--X-X-----X-5---5---10-10-10-10-10---3-3---1p0---0-1---1-1-1-1-1---3-3---|
A#-X-X-----X-5---5--------------------3-3-------3---1---1-1-1-1-1---3-3---|
   As I fight for one last breath!          

Guitar 2 (0:43)
C-------------------------------------------------------------------------|
G---------------------------------------------------8----10---11----10----|
D---------------------------------------------------x-x4-x-x4-x-x4--x-x4--|
A#--------------------------------------------------5----7----8-----7-----|
F-------------------------------------------------------------------------|
A#------------------------------------------------------------------------|

Guitar 1 (0:49)
C---------------------------------------------------------------|
G---------------------------------------------------------------|
D#--------------------------------------------------------------|
A#-5---5--------------------3-3-----------1----1-1-1-1-1----X-3-|
F--5---5---10-10-10-10-10---3-3---1p0---0-1----1-1-1-1-1----X-3-|
A#-5---5--------------------3-3-------3---1----1-1-1-1-1----X-3-|
           No love to..                                     As I..

Guitar 2 (0:49)
C---------------------------------------------------------------|
G-----------------------------------------8----10----11---16----|
D#----------------------------------------x-x4-x-x4--x-x4-x-x4--|
A#----------------------------------------5----7-----8----13----|
F---------------------------------------------------------------|
A#--------------------------------------------------------------|

Guitar 1 (0:55)
C-------------------------------------------------------|
G-------------------------------------------------------|
D-------------------------------------------------------|
A#-5-5-5-5-----8-8---8---8-----1-----1------------------|
F--5-5-5-5-----8-8---8---8-----1-----1--0-1h3---0-3p1---|
A#-5-5-5-5-----8-8---8---8-----1-----1--0-1h3---0-3p1---|
   Drag the devil down!                   I will stand alone.

Guitar 2 (0:55)
C-------------------------------------------------------|
G--15----------13--------------11-----------------------|
D#-x-x8--------x-x8------------x-x8---------------------|
A#-12----------10--------------8------------------------|
F---------------------------------------0-1h3---0-3p1---|
A#--------------------------------------0-1h3---0-3p1---|

Guitar 1 (1:01)
C------------------------------------------------------------|
G------------------------------------------------------------|
D------------------------------------------------------------|
A#-5-5-5-5-----8-8---8---8-----------------------------1-----|
F--5-5-5-5-----8-8---8---8---1p0---0---0-1p0---0---0-0-1-----|
A#-5-5-5-5-----8-8---8---8---1p0---0---0-1p0---0---0-0-1-----|
   No longer defeated!             *   *       *   * *

Guitar 2 (1:01)
C------------------------------------------------------------|
G--8-----------13--------------------------------------------|
D#-x-x8--------x-x8------------------------------------------|
A#-5-----------10--------------------------------------1-----|
F----------------------------1p0---0---0-1p0---0---0-0-1-----|
A#---------------------------1p0---0---0-1p0---0---0-0-1-----|
                                   *   *       *   * *

Guitar 1 (1:07)
C-------------------------------------------------------------------------|
G-------------------------------------------------------------------------|
D#------------------------------------------------------------------------|
A#------------------------------------------------------------------------|
F--0---10-9---------10-9--------------0---10-9---------10-9---------------|
A#-0--------13\12~-------0-10-0-13\12-0--------13\12~-------13-10-0-10h13-|

C-------------------------------------------------------------------------|
G-------------------------------------------------------------------------|
D#------------------------------------------------------------------------|
A#-----------------------------------------------------X-1---X-3----------|
F--0---10-9---------10-9--------------0---10-9---------X-1---X-3----------|
A#-0--------13\12~-------0-10-0-13\12-0--------13\12~--X-1---X-3----------|

VERSE 2:
Guitar 2 (1:19 - 1:41)
C----------------------------------------------------------------------------------|
G----------------------------------------------------------------------------------|
D#------------10----------------------10-------------------10----------------------|
A#------8------------8----------8----------8---------8----------8-------7-8-10-8-7-|
F--10----------------------10--------------------6--------------------8------------| x2
A#---------------------------------------------------------------------------------|
   *                       *                     *                    *

Guitar 1 (1:42)
C---------------------------------------------------------|
G---------------------------------------------------------|
D#--------------------------------------------------------|
A#----------------------------------------------1---------|
F-----------------------------------------------1---------| let ring
A#----------------------------------------------1---------|

Guitar 2 (1:42)
C---------------------------------------------------------|
G---------------------------------------------------------|
D#-----------10-------------2---3---5---3---2---0---------|
A#-----8------------8-----3-------------------------------|
F--6------------------------------------------------------|
A#--------------------------------------------------------|

CHORUS 2:
Guitar 1 (1:50) (Both guitars played correspondingly with each other)
C-------------------------------------------------------------------------|
G-------------------------------------------------------------------------|
D#------------------------------------------------------------------------|
A#-X-X-----X-5---5--------------------3-3-----------1---1-1-1-1-1---3-3---|
F--X-X-----X-5---5---10-10-10-10-10---3-3---1p0---0-1---1-1-1-1-1---3-3---|
A#-X-X-----X-5---5--------------------3-3-------3---1---1-1-1-1-1---3-3---|
   As I fight for one last breath!          

Guitar 2 (1:50)
C-------------------------------------------------------------------------|
G---------------------------------------------------8----10---11----10----|
D---------------------------------------------------x-x4-x-x4-x-x4--x-x4--|
A#--------------------------------------------------5----7----8-----7-----|
F-------------------------------------------------------------------------|
A#------------------------------------------------------------------------|

Guitar 1 (1:57)
C---------------------------------------------------------------|
G---------------------------------------------------------------|
D#--------------------------------------------------------------|
A#-5---5--------------------3-3-----------1----1-1-1-1-1----X-3-|
F--5---5---10-10-10-10-10---3-3---1p0---0-1----1-1-1-1-1----X-3-|
A#-5---5--------------------3-3-------3---1----1-1-1-1-1----X-3-|
           No love to..                                     As I..

Guitar 2 (1:57)
C---------------------------------------------------------------|
G-----------------------------------------8----10----11---16----|
D#----------------------------------------x-x4-x-x4--x-x4-x-x4--|
A#----------------------------------------5----7-----8----13----|
F---------------------------------------------------------------|
A#--------------------------------------------------------------|

Guitar 1 (2:02)
C-------------------------------------------------------|
G-------------------------------------------------------|
D-------------------------------------------------------|
A#-5-5-5-5-----8-8---8---8-----1-----1------------------|
F--5-5-5-5-----8-8---8---8-----1-----1--0-1h3---0-3p1---|
A#-5-5-5-5-----8-8---8---8-----1-----1--0-1h3---0-3p1---|
   Drag the devil down!                   I will stand alone.

Guitar 2 (2:02)
C-------------------------------------------------------|
G--15----------13--------------11-----------------------|
D#-x-x8--------x-x8------------x-x8---------------------|
A#-12----------10--------------8------------------------|
F---------------------------------------0-1h3---0-3p1---|
A#--------------------------------------0-1h3---0-3p1---|

Guitar 1 (2:08)
C------------------------------------------------------------|
G------------------------------------------------------------|
D------------------------------------------------------------|
A#-5-5-5-5-----8-8---8---8-----------------------------1-----|
F--5-5-5-5-----8-8---8---8---1p0---0---0-1p0---0---0-0-1-----|
A#-5-5-5-5-----8-8---8---8---1p0---0---0-1p0---0---0-0-1-----|
   No longer defeated!             *   *       *   * *

Guitar 2 (2:08)
C------------------------------------------------------------|
G--8-----------13--------------------------------------------|
D#-x-x8--------x-x8------------------------------------------|
A#-5-----------10--------------------------------------1-----|
F----------------------------1p0---0---0-1p0---0---0-0-1-----|
A#---------------------------1p0---0---0-1p0---0---0-0-1-----|
                                   *   *       *   * *

BREAK: (2:14)
Guitar 1
C------------------------------------------------------------------------------|
G------------------------------------------------------------------------------|
D#-----------------------------------------------------------------------------|
A#-----------------------------------------------------------------------------|
F------------------------------------1-1-X---1-X---1-1-1-X---1-X---1-1-1-X---1-|
A#-0-0-0-0-0-0-0-0-0-0-0-0-0-0-0-0---1-1-X---1-X---1-1-1-X---1-X---1-1-1-X---1-|
           I'm falling to pieces!                    Stained and used..

Guitar 2 (2:14)
C------------------------------------------------------------------------------|
G--10--------------13----------------------------------------------------------|
D#-x--x8-----------x--x8-------------------------------------------------------|
A#-7---------------10----------------------------------------------------------|
F------------------------------------1-1-X---1-X---1-1-1-X---1-X---1-1-1-X---1-|
A#-----------------------------------1-1-X---1-X---1-1-1-X---1-X---1-1-1-X---1-|

Guitar 1 (2:20)
C------------------------------------------------------------------------------|
G------------------------------------------------------------------------------|
D#-----------------------------------------------------------------------------|
A#-----------------------------------1-------1-----1-----3---3-----------------|
F------------------------------------1-------1-----1-----3---3-----------------|
A#-0-0-0-0-0-0-0-0-0-0-0-0-0-0-0-0---1-------1-----1-----3---3-----------------|
           I know what..       Need                It's not..

Guitar 2 (2:20)
C------------------------------------------------------------------------------|
G--10--------------13------15--------11--------------13------15----------------|
D#-x--x8-----------x--x4---x--x4-----x--x8-----------x--x4---x--x4-------------|
A#-7---------------10------12--------8---------------10------12----------------|
F------------------------------------------------------------------------------|
A#-----------------------------------------------------------------------------|

Guitar 1 (2:25)
C------------------------------------------------------------------|
G------------------------------------------------------------------|
D#-----------------------------------------------------------------|
A#-8---8---8---8---8---8---8---8---5---5---5---5---5---5---5---5---|
F--6---6---6---6---6---6---6---6---5---5---5---5---5---5---5---5---|
A#-5---5---5---5---5---5---5---5---5---5---5---5---5---5---5---5---|
   You!                                        It's not...

Guitar 2 (2:25)
C------------------------------------------------------------------|
G--11--11--11--11--16--16--16--16--15--15--15--15--15--15--15--15--|
D#-x---x---x---x---x---x---x---x---x---x---x---x---x---x---x---x---|
A#-8---8---8---8---13--13--13--13--12--12--12--12--12--12--12--12--|
F------------------------------------------------------------------|
A#-----------------------------------------------------------------|

Guitar 1 (2:31)
C----------------------------------------------------------|
G----------------------------------------------------------|
D#---------------------------------------------------------|
A#-3---3---3---3---3---3---3---3---1---1---1---1---1---1---|
F--3---3---3---3---3---3---3---3---1---1---1---1---1---1---|
A#-3---3---3---3---3---3---3---3---1---1---1---1---1---1---|
   You!..
Guitar 2 (2:31)
C----------------------------------------------------------|
G--13--13--13--13--13--13-/15--15--11--11--11--11--11--11--|
D#-x---x---x---x---x---x---x---x---x---x---x---x---x---x---|
A#-10--10--10--10--10--10-/12--12--8---8---8---8---8---8---|
F----------------------------------------------------------|
A#---------------------------------------------------------|

CHORUS 3:
Guitar 1 (2:36)           pause
C------------------------------------------------------------|
G------------------------------------------------------------|
D#-----------------------------------------------------------|
A#-X-X-----X-5---5---X-----------------1---1-1-1-1-1---3-3---|
F--X-X-----X-5---5---X-----------------1---1-1-1-1-1---3-3---|
A#-X-X-----X-5---5---X-----------------1---1-1-1-1-1---3-3---|
   As I fight for one last breath!          

Guitar 2 (2:36)
C------------------------------------------------------------|
G--------------------------------------8----10---11----10----|
D--------------------------------------x-x4-x-x4-x-x4--x-x4--|
A#-------------------------------------5----7----8-----7-----|
F------------------------------------------------------------|
A#-----------------------------------------------------------|

Guitar 1 (2:43)
C------------------------------------------------------------------|
G------------------------------------------------------------------|
D#-----------------------------------------------------------------|
A#-5---5--------------------3-3-----------1----1-1-1-1-1----X-3----|
F--5---5---10-10-10-10-10---3-3---1p0---0-1----1-1-1-1-1----X-3----|
A#-5---5--------------------3-3-------3---1----1-1-1-1-1----X-3----|
           No love to..                                     As I..    
      
Guitar 2 (2:43)
C------------------------------------------------------------------|
G-----------------------------------------8----10----11-----X-13---|
D#----------------------------------------x-x4-x-x4--x-x4---X-x----|
A#----------------------------------------5----7-----8------X-10---|
F------------------------------------------------------------------|
A#-----------------------------------------------------------------|

Guitar 1 (2:49)
C------------------------------------------------------------------------|
G------------------------------------------------------------------------|
D#-----------------------------------------------------------------------|
A#-5-5---5---X-5---X---5-5-3-3---X-3---X-3-3-1-1---X-1-X---1-1-----------|
F--5-5---5---X-5---X---5-5-3-3---X-3---X-3-3-1-1---X-1-X---1-1-----------|
A#-5-5---5---X-5---X---5-5-3-3---X-3---X-3-3-1-1---X-1-X---1-1-0-3-1-0-1-|
   Drag the devil..      

Guitar 2 (2:49)
C---------------------------------------------------------------------|
G--15----------------------13----------------11-----------------------|
D#-x-x8--------------------x-x8--------------x-x8---------------------|
A#-12----------------------10----------------8------------------------|
F---------------------------------------------------------------------|
A#--------------------------------------------------------------------|

Guitar 1 (2:55)
C---------------------------------------------------------------|
G---------------------------------------------------------------|
D---------------------------------------------------------------|
A#-5-5-5-5-----8-8---8---8-----1-----1---1-----1-1--------------|
F--5-5-5-5-----8-8---8---8-----1-----1---1-----1-1--------------|
A#-5-5-5-5-----8-8---8---8-----1-----1---1-----1-1----3-3-0-7---|
       No longer defeated!

Guitar 2 (2:55)
C-------------------------------------------------------|
G--8-----------13--------------11-----------------------|
D#-x-x8--------x-x8------------x-x8---------------------|
A#-5-----------10--------------8------------------------|
F-------------------------------------------------------|
A#------------------------------------------------------|

Guitar 1 (3:00)
C---------------------------------------------------------------|
G---------------------------------------------------------------|
D---------------------------------------------------------------|
A#-5-5-5-5-----8-8---8---8-----1-----1---1-----1-1--------------|
F--5-5-5-5-----8-8---8---8-----1-----1---1-----1-1--------------|
A#-5-5-5-5-----8-8---8---8-----1-----1---1-----1-1----3p0-8\7---|
       No longer defeated!

Guitar 2 (3:00)
C-------------------------------------------------------|
G--8-----------13--------------11-----------------------|
D#-x-x8--------x-x8------------x-x8---------------------|
A#-5-----------10--------------8------------------------|
F-------------------------------------------------------|
A#------------------------------------------------------|

Guitar 1 (3:06)                
C---------------------------------------------------------------|
G---------------------------------------------------------------|
D---------------------------------------------------------------|
A#-5-5-5-5-----8-8---8---8-----1--------------------------------| last barre chord fades out
F--5-5-5-5-----8-8---8---8-----1--------------------------------|
A#-5-5-5-5-----8-8---8---8-----1--------------------------------|
       No longer defeated!           

C-------------------------------------------------------|
G--8-----------13--------------11-----------------------|
D#-x-x8--------x-x8------------x------------------------| last note fades out
A#-5-----------10--------------8------------------------|
F-------------------------------------------------------|
A#------------------------------------------------------|            
Submit corrections


        Defeated  lessons Hard to play? Try these video lessons and learn fast Defeated  lessons
        
↑ Back to top | Tablatures and chords for acoustic guitar and electric guitar, ukulele, drums are parodies/interpretations of the original songs. You may use it for private study, scholarship, research or language learning purposes only