» » »

Breaking Benjamin - Dark Tabs

Artists:  A B C D E F G H I J K L M N O P Q R S T U V W X Y Z # 

Dark Tabs

(ver. 1) Click to play this song!
Breaking Benjamin
 Rating:
3.2/5 (29 votes)

 Dark  lessons Tabs too difficult? Try these video lessons and learn fast
 
                Tuning: Drop A#

Guitar 2: (0:08) Clean
C--------------------------------------------------------------------------------|
G--------------------------------------------------------------------------------|
D#-------------------------------------------------------------------------------|
A#-------------------------------------------------------------------------------|
F--10---12---12---12---10---12---13---13---10---12---12---12---12---12---12---12-|
A#----0----0----0----0----0----0----0----0----0----0----0----0----0----0----0----|


Guitar 2: (0:16) Clean
C-----------------------------------------------------------------------------|
G-----------------------------------------------------------------------------|
D-----------------------------------------------------------------------------|
A#----------------------------------------------------------------------------|
F----10---12---12---12---10---12---13---13---10---9---9---9---9---9---9---9---|
A#-0----0----0----0----0----0----0----0----0----0---0---0---0---0---0---0---0-|


Guitar 2: (0:25) Clean
C--------------------------------------------------------------------------------|
G--------------------------------------------------------------------------------|
D#-------------------------------------------------------------------------------|
A#-------------------------------------------------------------------------------|
F--10---12---12---12---10---12---13---13---10---12---12---12---12---12---12---12-|
A#----0----0----0----0----0----0----0----0----0----0----0----0----0----0----0----|

Guitar 2: (0:33)
C-----------------------------------------------------------------------------|
G-----------------------------------------------------------------------------|
D-----------------------------------------------------------------------------|
A#----------------------------------------------------------------------------|
F----10---12---12---12---10---12---13---13---10---9---9---9---9---9---9---9---|
A#-0----0----0----0----0----0----0----0----0----0---0---0---0---0---0---0---0-|


Guitar 1: (0:41) DISTORTION (Fuzz)
C-----------------------------------------------------------------------------|
G-----------------------------------------------------------------------------|
D#----------------------------------------------------------------------------|
A#----------------------------------------------------------------------------|
F-----------------------------------------------------------------------------|
A#-0-0-x---------------0-0-x-------0-x-----0-0-x------------0-0-x-------0-x---|

Guitar 2: (0:41)
C-----------------------------------------------------------------------------|
G-----------------------------------------------------------------------------|
D-----------------------------------------------------------------------------|
A#----------------------------------------------------------------------------|
F----10---12---12---12---10---12---13---13---10---9---9---9---9---9---9---9---|
A#-0----0----0----0----0----0----0----0----0----0---0---0---0---0---0---0---0-|

Guitar 1: (0:49)
C-----------------------------------------------------------------------------|
G-----------------------------------------------------------------------------|
D#----------------------------------------------------------------------------|
A#----------------------------------------------------------------------------|
F-----------------------------------------------------------------------------|
A#-0-0-x---------------0-0-x-------0-x-----0-0-x------------0-0-x-------0-x---|

Guitar 2: (0:49)
C--------------------------------------------------------------------------------|
G--------------------------------------------------------------------------------|
D#-------------------------------------------------------------------------------|
A#-------------------------------------------------------------------------------|
F--10---12---12---12---10---12---13---13---10---12---12---12---12---12---12---12-|
A#----0----0----0----0----0----0----0----0----0----0----0----0----0----0----0----|


Guitar 1: (0:58)
C-----------------------------------------------------------------------------|
G-----------------------------------------------------------------------------|
D#----------------------------------------------------------------------------|
A#----------------------------------------------------------------------------|
F-----------------------------------------------------------------------------|
A#-0-0-x------0-x------0-0-x-------0-x-----0-0-x------------0-0-X-------0-x---|

Guitar 2: (0:58)
C-----------------------------------------------------------------------------|
G-----------------------------------------------------------------------------|
D-----------------------------------------------------------------------------|
A#----------------------------------------------------------------------------|
F----10---12---12---12---10---12---13---13---10---9---9---9---9---9---9---9---|
A#-0----0----0----0----0----0----0----0----0----0---0---0---0---0---0---0---0-|


CHORUS:
Guitar 1: (1:06) DISTORTION
C--------------------------------------------------------------------------|
G--------------------------------------------------------------------------|
D#-------------------------------------------------------------------------|
A#-8---8---8---8---8---8---8---8-----0---0---0---0---0---0-10-10-10-10-10--|
F--8---8---8---8---8---8---8---8-----0---0---0---0---0---0-----------------|
A#-8---8---8---8---8---8---8---8-----0---0---0---0---0---0-----------------|

Guitar 2: (1:06) Clean
C--10--10------------------12--12----13--13-------------------12----12-----|
G--------------------------------------------------------------------------|
D#-------------------------------------------------------------------------|
A#-------------------------------------------------------------------------|
F--------------------------------------------------------------------------|
A#-------------------------------------------------------------------------|

Guitar 1: (1:15)
C----------------------------------------------------------------------|
G----------------------------------------------------------------------|
D#---------------------------------------------------------------------|
A#-8---8---8---8---8---8---8---8-----0---0---0---0---0---0---0---0-----|
F--8---8---8---8---8---8---8---8-----0---0---0---0---0---0---0---0-----|
A#-8---8---8---8---8---8---8---8-----0---0---0---0---0---0---0---0-----|


Guitar 2: (1:15)
C--10--10------------------12--12----13--13------------------12--12-----|
G-----------------------------------------------------------------------|
D#----------------------------------------------------------------------|
A#----------------------------------------------------------------------|
F-----------------------------------------------------------------------|
A#----------------------------------------------------------------------|

Guitar 1: (1:24)
C----------------------------------------------------------------------|
G----------------------------------------------------------------------|
D#---------------------------------------------------------------------|
A#-8---8---8---8---8---8---8---8-----5---5---5---5---5---5---5---5--x--|
F--8---8---8---8---8---8---8---8-----5---5---5---5---5---5---5---5--x--|
A#-8---8---8---8---8---8---8---8-----5---5---5---5---5---5---5---5--x--|

Guitar 2: (1:24)
C--10--10----------------------------15--15-----------------------------|
G-----------------------------------------------------------------------|
D#----------------------------------------------------------------------|
A#----------------------------------------------------------------------|
F-----------------------------------------------------------------------|
A#----------------------------------------------------------------------|


END: PLAY TWICE
Guitar 2: (1:31) Clean
C--------------------------------------------------------------------------------|
G--------------------------------------------------------------------------------|
D#-------------------------------------------------------------------------------|
A#-------------------------------------------------------------------------------|
F--10---12---12---12---10---12---13---13---10---12---12---12---12---12---12---12-|
A#----0----0----0----0----0----0----0----0----0----0----0----0----0----0----0----|

Guitar 2: (1:40) Clean
C-----------------------------------------------------------------------------|
G-----------------------------------------------------------------------------|
D-----------------------------------------------------------------------------|
A#----------------------------------------------------------------------------|
F----10---12---12---12---10---12---13---13---10---9---9---9---9---9---9---9---|
A#-0----0----0----0----0----0----0----0----0----0---0---0---0---0---0---0---0-|            
Submit corrections


        Dark  lessons Hard to play? Try these video lessons and learn fast Dark  lessons
        
↑ Back to top | Tablatures and chords for acoustic guitar and electric guitar, ukulele, drums are parodies/interpretations of the original songs. You may use it for private study, scholarship, research or language learning purposes only