Home » B » Breaking Benjamin »

Breaking Benjamin - Dance With The Devil Bass

Artists:  A B C D E F G H I J K L M N O P Q R S T U V W X Y Z # 

Dance With The Devil Bass

(ver. 1) Click to play this song!
Breaking Benjamin
 Rating:
4/5 (4 votes)
                “Dance With The Devil” – Breaking Benjamin


Tuning: A#, F, A#, D#

“Dance With The Devil”

Intro:
|--------------------------------------------------------------------|
|--------------------------------------------------------------------|
|-----—------—-------------------------------------------------------|
|--5-5-5p3-5p3-8p5-3h6---5-5--5p3-5p3-8p5-3h6--5-5--5p3-5p3-8p5-3h6--|

|------------------------------|
|------------------------------|
|------------------------------|
|--5-5—5p3-7-7-7-7-5-5-5-5-----|


Verse play the parenthesis note on the 2nd verse but not the first
|--------------------------------------------------------------------|
|--------------------------------------------------------------------|
|--------------------------------------------------------------------|
|--5---5-5-5-5---0-----0-0-0-0-—2---2-2-2-2-(3)--0---0-0-0-0---------|

|--------------------------------------------------------------------|
|--------------------------------------------------------------------|
|----------------------------------3-3-3-3-3-3-3-3-------------------|
|--7-7-7-7-7-7-7-7-0-0-0-0-0-0-0-0-----------------1-1-1-1-1-1-1-1---|

Chorus (not sure how many times it repeats, 2nd Chorus has the runs)
|--------------------------------------------------------------------------|
|------------------------------7-5-3--------------------------5p3h8p5p3h5--|
|--4-44444--1-11111--------------------4-44444-111111----------------------|
|--------------------3-33333--------------------------3-333333-------------|

Intro
Verse 2(verse one but 16th notes)
Before Chorus 2 
|------------------------------------------------------------------|
|-3-3-5-5-1-1-----------------------------------10h11p10h12p10h12--|
|-------------6-6-6-6-6-6-6---12-12-12-12-12-12--------------------|
|-------------------------------------—----------------------------|

Chorus 2 (same as the first)

Bridge
|--------------------------------------------------------------------|
|--------------------------------------------------------------------|
|--------------------------------------------------------------------|
|--1-11-1--11--3-33-3------------x2---------5-5-5-5-5---7-7-7-7-7----|

Chorus x6
Bridge
Outro: x2
|-----------------------------------|
|-----------------------------------|
|-----------------------------------|
|-2-2-2-2-2-2-2-2-0-0-0-0-0-0-0-0-0-|
            
Submit corrections

↑ Back to top | Tablatures and chords for acoustic guitar and electric guitar, ukulele, drums are parodies/interpretations of the original songs. You may use it for private study, scholarship, research or language learning purposes only