» » »

Breaking Benjamin - Close To Heaven Tabs

Artists:  A B C D E F G H I J K L M N O P Q R S T U V W X Y Z # 

Close To Heaven Tabs

(ver. 1) Click to play this song!
Breaking Benjamin
 Rating:
3.9/5 (25 votes)

 Close To Heaven  lessons Tabs too difficult? Try these video lessons and learn fast
 
                INTRO: DISTORTION
Guitar 1 Rhythm: (0:00)
C---------------------------------------------------------------------------------------------------|
G---------------------------------------------------------------------------------------------------|
D#--------------------------------------------------------------------------------------------------|
A#--------------------------------------------------------------------------------------------------|
F--5----3-5-3-5----3-5-/6-5----3-5-3--6-6-3p0-3h6--5----3-5-3-5----3-5-/6-5----3-5-3----6---8---3---|
A#-5----3-5-3-5----3-5-/6-5----3-5-3--6-6-3p0-3h6--5----3-5-3-5----3-5-/6-5----3-5-3----6---8---3---|

Guitar 2 Lead: (0:00)
G--10---------------------11----------11--13--11---10---------------------11------------8---11--8---|
C-------------8-----------------------------------------------8-------------------------------------|
D#--------------------------------------------------------------------------------------------------|
A#--------------------------------------------------------------------------------------------------|
F---------------------------------------------------------------------------------------------------|
A#--------------------------------------------------------------------------------------------------|

Guitar 1 Rhythm: (0:09)
C---------------------------------------------------------------------------------------------------|
G---------------------------------------------------------------------------------------------------|
D#--------------------------------------------------------------------------------------------------|
A#--------------------------------------------------------------------------------------------------|
F--5----3-5-3-5----3-5-/6-5----3-5-3--6-6-3p0-3h6--5----3-5-3-5----3-5-/6-5----3-5-3----------------|
A#-5----3-5-3-5----3-5-/6-5----3-5-3--6-6-3p0-3h6--5----3-5-3-5----3-5-/6-5----3-5-3----6---8---6---|

Guitar 2 Lead: (0:09)
G--10---------------------11----------11--13--11---10---------------------11------------8---11--8---|
C-------------8-----------------------------------------------8-------------------------------------|
D#--------------------------------------------------------------------------------------------------|
A#--------------------------------------------------------------------------------------------------|
F---------------------------------------------------------------------------------------------------|
A#--------------------------------------------------------------------------------------------------|


VERSE:
Guitar 1 Rhythm: (0:17)
C--------------------------------------------------------------------------------------------|
G--------------------------------------------------------------------------------------------|
D#-------------------------------------------------------------------------------------------|
A#-------------------------------------------------------------------------------------------|
F--5----3-5-3-5----3-5-3-5----3-5-3--6---3---6----5----3-5-3-5----3-5-3-5----3-5-3--8--7--3--|
A#-5----3-5-3-5----3-5-3-5----3-5-3--6---3---6----5----3-5-3-5----3-5-3-5----3-5-3--8--7--3--|
   *    * * * *    * * * *    * * *  *   *   *    *    * * * *    * * * *    * * *  *  *  *
   Pain, come alive..                I try to breathe..    Shade my eyes..          Follow the..

Guitar 2 Lead: (0:17)
C------------|
G--8---------|
D#-----------| let ring
A#-----------|
F------------|
A#-----------|

Guitar 1 Rhythm: (0:26)
C------------------------------------------------------------------------------------------------|
G------------------------------------------------------------------------------------------------|
D#-----------------------------------------------------------------------------------------------|
A#-----------------------------------------------------------------------------------------------|
F--1----0-1-0-1----0-1-3-1----0-1-0----8--7--3----5----3-5-3-5----3-5-3-5----3-5-3--6-6-3p0-3h6--|
A#-1----0-1-0-1----0-1-3-1----0-1-0----8--7--3----5----3-5-3-5----3-5-3-5----3-5-3--6-6-3p0-3h6--|
   *    * * * *    * * * *    * * *    *  *  *    *    * * * *    * * * *    * * *
   Damned..     I have lost the way again!

Guitar 2 Lead: (0:26)
C------------------------------------------------------------------------------------------------|
G--3----------------------------------------------8----------------------------------------------|
D#-----------------------------------------------------------------------------------------------|
A#-----------------------------------------------------------------------------------------------|
F------------------------------------------------------------------------------------------------|
A#-----------------------------------------------------------------------------------------------|

Guitar 1 Rhythm: (0:36)
C------------------------------------------------------------------------------------------|
G------------------------------------------------------------------------------------------|
D#-----------------------------------------------------------------------------------------|
A#-----------------------------------------------------------------------------------------|
F--5----3-5-3-5----3-5-3-5----3-5-3--6--3--6----5----3-5-3-5----3-5-3-5----3-5-3--8--7--3--|
A#-5----3-5-3-5----3-5-3-5----3-5-3--6--3--6----5----3-5-3-5----3-5-3-5----3-5-3--8--7--3--|
   *    * * * *    * * * *    * * *  *  *  *    *    * * * *    * * * *    * * *  *  *  *
   Stay, trust in life               Carried beneath, dead arise..                Sorrow avenged

Guitar 2 Lead: (0:36)
C------------|
G--8---------|
D#-----------| let ring
A#-----------|
F------------|
A#-----------|

Guitar 1 Rhythm: (0:44)
C--------------------------------------------------------------------------------------|
G--------------------------------------------------------------------------------------|
D#-------------------------------------------------------------------------------------|
A#-------------------------------------------------------------------------------------|
F--1----0-1-0-1----0-1-3-1----0-1-0----8--7--3----5----3-5-3-5----3-5-6-5----3-5-3-5-x-|
A#-1----0-1-0-1----0-1-3-1----0-1-0----8--7--3----5----3-5-3-5----3-5-6-5----3-5-3-5-x-|
   *    * * * *    * * * *    * * *    *  *  *    *    * * * *
                I will face the weak within!

Guitar 2 Lead: (0:44)
C------------------------------------------------------------------------------------------------|
G--3----------------------------------------------8----------------------------------------------|
D#-----------------------------------------------------------------------------------------------|
A#-----------------------------------------------------------------------------------------------|
F------------------------------------------------------------------------------------------------|
A#-----------------------------------------------------------------------------------------------|


PRE-CHORUS:
Guitar 2 Lead: (0:53) Clean
C----------------------------------------6---|
G----------------------------------------6---|
D#---------------------------------------8---| 
A#---------------------------------------8---|
F----------------------------------------6---|
A#-------------------------------------------|
               I'll keep love together..

CHORUS:
Guitar 1 Rhythm: (1:10)
C-------------------------------------------------------------------------|
G-------------------------------------------------------------------------|
D#------------------------------------------------------------------------|
A#-5---5---5----5---3---3---3----3---1---1---1----1---1---1---3---0---3---|
F--5---5---5----5---3---3---3----3---1---1---1----1---1---1---3---0---3---|
A#-5---5---5----5---3---3---3----3---1---1---1----1---1---1---3---0---3---|
   I'll be..        yours..          forever..                I'll..

Guitar 2 Lead: (1:10)
C------10----------------10--------13------13------------10------10----------|
G--8-------10-11-8---8-------8---------11------11----13------8-------10---8--|
D#---------------------------------------------------------------------------|
A#---------------------------------------------------------------------------|
F----------------------------------------------------------------------------|
A#---------------------------------------------------------------------------|

Guitar 1 Rhythm: (1:19)
C---------------------------------------------------------------------------|
G---------------------------------------------------------------------------|
D#--------------------------------------------------------------------------|
A#-5---5---5----5---3---3---3---3-3---1---1---1---1-1---1---1---3---0---3---|
F--5---5---5----5---3---3---3---3-3---1---1---1---1-1---1---1---3---0---3---|
A#-5---5---5----5---3---3---3---3-3---1---1---1---1-1---1---1---3---0---3---|
   Sleep..           Close..        To heaven!..

Guitar 2 Lead: (1:19)
G----------10----------------10----------------------------------------------|
C----8-11-----11-8---------8----10-----11--11--11/13-13-/16--16--15----------|
D#-7-----------------7--10---------10----------------------------------------|
A#---------------------------------------------------------------------------|
F----------------------------------------------------------------------------|
A#---------------------------------------------------------------------------|


POST-CHORUS:
Guitar 1 Rhythm: (1:28)
C---------------------------------------------------------------------------------------------------|
G---------------------------------------------------------------------------------------------------|
D#--------------------------------------------------------------------------------------------------|
A#--------------------------------------------------------------------------------------------------|
F--5----3-5-3-5----3-5-/6-5----3-5-3--6-6-3p0-3h6--5----3-5-3-5----3-5-/6-5----3-5-3----------------|
A#-5----3-5-3-5----3-5-/6-5----3-5-3--6-6-3p0-3h6--5----3-5-3-5----3-5-/6-5----3-5-3----6h8-6p0-3h6-|

Guitar 2 Lead: (1:28)
G--10---------------------11----------11--13--11---10---------------------11------------8---11--8---|
C-------------8-----------------------------------------------8-------------------------------------|
D#--------------------------------------------------------------------------------------------------|
A#--------------------------------------------------------------------------------------------------|
F---------------------------------------------------------------------------------------------------|
A#--------------------------------------------------------------------------------------------------|


VERSE 2:
Guitar 1 Rhythm: (1:37)
C--------------------------------------------------------------------------------------------|
G--------------------------------------------------------------------------------------------|
D#-------------------------------------------------------------------------------------------|
A#-------------------------------------------------------------------------------------------|
F--5----3-5-3-5----3-5-3-5----3-5-3--6---3---6----5----3-5-3-5----3-5-3-5----3-5-3--8--7--3--|
A#-5----3-5-3-5----3-5-3-5----3-5-3--6---3---6----5----3-5-3-5----3-5-3-5----3-5-3--8--7--3--|
   *    * * * *    * * * *    * * *  *   *   *    *    * * * *    * * * *    * * *  *  *  *
   Hate, lost inside..               I dare to dream, faithless lies, caught in the..

Guitar 2 Lead: (1:37)
C---------------|
G--8------------|
D#--------------| let ring
A#--------------|
F---------------|
A#--------------|

Guitar 1 Rhythm: (1:46)
C--------------------------------------------------------------------------------------|
G--------------------------------------------------------------------------------------|
D#-------------------------------------------------------------------------------------|
A#-------------------------------------------------------------------------------------|
F--1----0-1-0-1----0-1-3-1----0-1-0----8--7--3----5----3-5-3-5----3-5-6-5----3-5-3-5-x-|
A#-1----0-1-0-1----0-1-3-1----0-1-0----8--7--3----5----3-5-3-5----3-5-6-5----3-5-3-5-x-|
   *    * * * *    * * * *    * * *    *  *  *    *    * * * *                       So..
   Web..        I will face the weak within!

Guitar 2 Lead: (1:46)
C------------------------------------------------------------------------------------------------|
G--3----------------------------------------------8----------------------------------------------|
D#-----------------------------------------------------------------------------------------------|
A#-----------------------------------------------------------------------------------------------|
F------------------------------------------------------------------------------------------------|
A#-----------------------------------------------------------------------------------------------|


CHORUS 2: DISTORTION
Guitar 1 Rhythm: (1:55)
C--------------------------------------------------------------------------|
G--------------------------------------------------------------------------|
D#-------------------------------------------------------------------------|
A#-5---5---5----5---3---3---3----3---1---1---1-----1---1---1---3---0---3---|
F--5---5---5----5---3---3---3----3---1---1---1-----1---1---1---3---0---3---|
A#-5---5---5----5---3---3---3----3---1---1---1-----1---1---1---3---0---3---|
   I'll stay unforgiven..                                          And I'll..

Guitar 2 Lead: (1:55)
C------10--------11------10--------13----------------------------------------|
G--8-------8---------10------10--------11--11--11/13-13-13/16-16-15----------|
D#---------------------------------------------------------------------------|
A#---------------------------------------------------------------------------|
F----------------------------------------------------------------------------|
A#---------------------------------------------------------------------------|

Guitar 1 Rhythm: (2:04)
C----------------------------------------------------------------------------|
G----------------------------------------------------------------------------|
D#---------------------------------------------------------------------------|
A#-5---5---5-----5---3---3---3/5---5---1---1---1---1-----1---1---3---0---3---|
F--5---5---5-----5---3---3---3/5---5---1---1---1---1-----1---1---3---0---3---|
A#-5---5---5-----5---3---3---3/5---5---1---1---1---1-----1---1---3---0---3---|
   Keep...           Love..            Together!                     And I'll..

Guitar 2 Lead: (2:04)
C------10--------11------10--------13----------------------------------------|
G--8-------8---------10------10--------11--11--11/13-13-13/16-16-15----------|
D#---------------------------------------------------------------------------|
A#---------------------------------------------------------------------------|
F----------------------------------------------------------------------------|
A#---------------------------------------------------------------------------|

Guitar 1 Rhythm: (2:12)
C----------------------------------------------------------------------------|
G----------------------------------------------------------------------------|
D#---------------------------------------------------------------------------|
A#-5---5---5---5-5---3---3---3---3-3---1---1---1---1-1---1---1---3---0---3---|
F--5---5---5---5-5---3---3---3---3-3---1---1---1---1-1---1---1---3---0---3---|
A#-5---5---5---5-5---3---3---3---3-3---1---1---1---1-1---1---1---3---0---3---|
   Be..              Yours..           Forever!                      And I'll..

Guitar 2 Lead: (2:12)
C------10--------11------10--------13----------------------------------------|
G--8-------8---------10------10--------11--11--11/13-13-13/16-16-15----------|
D#---------------------------------------------------------------------------|
A#---------------------------------------------------------------------------|
F----------------------------------------------------------------------------|
A#---------------------------------------------------------------------------|

Guitar 1 Rhythm: (2:21)
C--------------------------------------------------------------------|
G--------------------------------------------------------------------|
D#-------------------------------------------------------------------|
A#-5---5---5---5-5---3---3---5---5---1---1---1---1h3---1---1---1--x--|
F--5---5---5---5-5---0---0---5---5---1---1---1---1h3---1---1---1--x--|
A#-5---5---5---5-5---0---0---5---5---1---1---1---1h3---1---1---1--x--|
   Sleep..           Close..     To heaven!

Guitar 2 Lead: (2:21)
C----------10----------------10----------------------------------------------|
G----8-11-----11-8---------8----10-----11--11--11/13-13-/16--16--15-x--------|
D#-7-----------------7--10---------10----------------------------------------|
A#---------------------------------------------------------------------------|
F----------------------------------------------------------------------------|
A#---------------------------------------------------------------------------|


BRIDGE 1:
Guitar 1 & 2 Rhythm: (2:30)
C------------------------------------------------------|
G------------------------------------------------------|
D#-----------------------------------------------------|
A#--------0--------------------------------------------|
F--0h1p0-----0-x-0-x-0-x---0-0-x---0-x---0-1---3---1---|
A#-0h1p0-----0-x-0-x-0-x---0-0-x---0-x---0-1-------1---|

(2:34)
C--------------------------------------------------------|
G--------------------------------------------------------|
D#-------------------------------------------------------|
A#--------0----------------------------------------------|
F--0h1p0-----0-x-0-x-0-x---0-0-x---0-x---0--6\5-----3h6--|
A#-0h1p0-----0-x-0-x-0-x---0-0-x---0-x---0------3p0------|

(2:39)
C------------------------------------------------------|
G------------------------------------------------------|
D#-----------------------------------------------------|
A#--------0--------------------------------------------|
F--0h1p0-----0-x-0-x-0-x---0-0-x---0-x---0-1---3---1---|
A#-0h1p0-----0-x-0-x-0-x---0-0-x---0-x---0-1-------1---|

(2:43)
C------------------------------------------------------|
G------------------------------------------------------|
D#-----------------------------------------------------|
A#--------0--------------------------------------------|
F--0h1p0-----0-x-0-x-0-x---0-0-x---0-x---0-0-x---------|
A#-0h1p0-----0-x-0-x-0-x---0-0-x---0-x---0-0-x---------|
                                           I'm coming..

BRIDGE 2:
Guitar 1 Rhythm: (2:47 - 3:00)
C-----------------------------------------|
G-----------------------------------------|
D#----------------------------------------|
A#-1---1--1-5----5--5-3----3--3-3----3--3-| x3
F--1---1--1-5----5--5-3----3--3-3----3--3-|
A#-1---1--1-5----5--5-3----3--3-3----3--3-|
   Home!                        I'm coming..

Guitar 2 Lead: (2:47 - 3:00)
C-----------------------------------------------------------------------------------------------------|
G--8---8--8/11--11--10--10--6--8-10--8---8---11--13--10-10--6--8-10--8---8--8/11--11--10--10--6--8-10-|
D#-x---x--x/x---x---x---x---x--x-x---x---x---x---x---x--x---x--x-x---x---x--x/x---x---x---x---x--x-x--|
A#-5---5--5/8---8---7---7---3--5-7---5---5---8---10--7--7---3--5-7---5---5--5/8---8---7---7---3--5-7--|
F-----------------------------------------------------------------------------------------------------|
A#----------------------------------------------------------------------------------------------------|

Guitar 1 Rhythm: (3:01)
C-----------------------------------------------------------------------|
G-----------------------------------------------------------------------|
D#----------------------------------------------------------------------|
A#-1----1--1-1----1----1----1----x-3-x-3-x-3--1---------------------X-X-|
F--1----1--1-1----1----1----1----x-3-x-3-x-3--1---------------------X-X-|
A#-1----1--1-1----1----1----1----x-3-x-3-x-3--1---------------------X-X-|
   Release me, my love!                                        So I'll...

Guitar 2 Lead: (3:01)
C----------------------------------|
G--8----8--8-8----8----8----8----x-|
D#-x----x--x-x----x----x----x----x-|
A#-5----5--5-5----5----5----5----x-|
F----------------------------------|
A#---------------------------------|


CHORUS 3:
Guitar 1 Rhythm: (3:10)
C--------------------------------------------------------------------------|
G--------------------------------------------------------------------------|
D#-------------------------------------------------------------------------|
A#-5---5---5--X-X-X-3---3---3----3---1---1---1-----1---1---1---3---0---3---|
F--5---5---5--X-X-X-3---3---3----3---1---1---1-----1---1---1---3---0---3---|
A#-5---5---5--X-X-X-3---3---3----3---1---1---1-----1---1---1---3---0---3---|
   Stay unforgiven..                                               And I'll..

Guitar 2 Lead: (3:10)
C--10------10-------10------10---13---------------------------------|
G------10---------------10-----------11--11--11/13-13-/16--16--15---|
D#------------------------------------------------------------------|
A#------------------------------------------------------------------|
F-------------------------------------------------------------------|
A#------------------------------------------------------------------|

Guitar 1 Rhythm: (3:19)
C--------------------------------------------------------------------------|
G--------------------------------------------------------------------------|
D#-------------------------------------------------------------------------|
A#-5---5---5--X-X-X-3---3---3----3---1---1---1-----1---1---1---3---0---3---|
F--5---5---5--X-X-X-3---3---3----3---1---1---1-----1---1---1---3---0---3---|
A#-5---5---5--X-X-X-3---3---3----3---1---1---1-----1---1---1---3---0---3---|
   Keep love together!                                             And I'll..

Guitar 2 Lead: (3:19)
C------10---------------10-------13---------------------------------|
G--10------10-------10------10-------11--11--11/13-13-/16--16--15---|
D#------------------------------------------------------------------|
A#------------------------------------------------------------------|
F-------------------------------------------------------------------|
A#------------------------------------------------------------------|

Guitar 1 Rhythm: (3:28)
C----------------------------------------------------------------------------|
G----------------------------6-----------------------------------------------|
D#---------------------------5-----------------------------------------------|
A#-5---5---5---5-5---3---3---3---------1---1---1---1-1---1---1---3---0---3---|
F--5---5---5---5-5---3---3---3---------1---1---1---1-1---1---1---3---0---3---|
A#-5---5---5---5-5---3---3---3---------1---1---1---1-1---1---1---3---0---3---|
   Be yours forever!                                                 And I'll..

Guitar 2 Lead: (3:28)
C------10------10-------10---13---------------------------------------|
G--10------10-------10-----------------11--11--11/13-13-/16--16--15---|
D#--------------------------------------------------------------------|
A#--------------------------------------------------------------------|
F---------------------------------------------------------------------|
A#--------------------------------------------------------------------|

Guitar 1 Rhythm: (3:36)
C-----------------------------------------------------------------------------|
G-----------------------------------------------------------------------------|
D#----------------------------------------------------------------------------|
A#-5---5---5---5-5---3---3---5---5---1---1---1---1-----1---1---1--3---0---3---|
F--5---5---5---5-5---0---0---5---5---1---1---1---1-----1---1---1--3---0---3---|
A#-5---5---5---5-5---0---0---5---5---1---1---1---1-----1---1---1--3---0---3---|
   Sleep             Close to heaven!                             I'll..

Guitar 2 Lead: (3:36)
C----------10----------------10----------------------------------------------|
G----8-11-----11-8---------8----10-----11--11--11/13-13-/16--16--15----------|
D#-7-----------------7--10---------10----------------------------------------|
A#---------------------------------------------------------------------------|
F----------------------------------------------------------------------------|
A#---------------------------------------------------------------------------|

Guitar 1 Rhythm: (3:45)
C-----------------------------------------------------------------------------|
G-----------------------------------------------------------------------------|
D#----------------------------------------------------------------------------|
A#-5---5---5---5-5---7---7---5---5---1---1---1---1-----1---1---1--3---0---3---|
F--5---5---5---5-5---3---3---5---5---1---1---1---1-----1---1---1--3---0---3---|
A#-5---5---5---5-5---3---3---5---5---1---1---1---1-----1---1---1--3---0---3---|
   Sleep..           Close to heaven!                             I'll..
 
Guitar 2 Lead: (3:45)
C----------10----------------10----------------------------------------------|
G----8-11-----11-8---------8----10-----11--11--11/13-13-/16--16--15----------|
D#-7-----------------7--10---------10----------------------------------------|
A#---------------------------------------------------------------------------|
F----------------------------------------------------------------------------|
A#---------------------------------------------------------------------------|

Guitar 1 Rhythm: (3:54)
C-----------------------------------|
G-----------------------------------|
D#----------------------------------| last barre chord fades out
A#-5-----------3-----5-------1------|
F--5-----------3-----5-------1------|
A#-5-----------3-----5-------1------|
   Sleep..     Close..    To heaven!

Guitar 2 Lead: (3:54)
C--10----------10------------13-----|
G--------------------11-------------|
D#----------------------------------| last note fades out
A#----------------------------------|
F-----------------------------------|
A#----------------------------------|
            
Submit corrections


        Close To Heaven  lessons Hard to play? Try these video lessons and learn fast Close To Heaven  lessons
        
↑ Back to top | Tablatures and chords for acoustic guitar and electric guitar, ukulele, drums are parodies/interpretations of the original songs. You may use it for private study, scholarship, research or language learning purposes only