» » »

Breaking Benjamin - Bury Me Tabs

Artists:  A B C D E F G H I J K L M N O P Q R S T U V W X Y Z # 

Bury Me Tabs

(ver. 1) Click to play this song!
Breaking Benjamin
 Rating:
3.7/5 (27 votes)

 Bury Me  lessons Tabs too difficult? Try these video lessons and learn fast
 
                Tuning (low to high): Bb F Bb Eb G C

Part 1
Play 2x
C |-------------------------------------|
G |-------------------------------------|
Eb|-7-77-77-77-77777-7-77b7b7b7b7b7b7b--|
Bb|-x-xx-xx-xx-xxxxx-x-xx-x-x-x-x-x-x---|
F |-5-55-55-55-55555-5-55b5b5b5b5b5b5b--|
Bb|-------------------------------------|

Part 2
Play 2x
C |-----------------------------------------------------------|
G |-----------------------------------------------------------|
Eb|-8s6-------------------------------------------------------|
Bb|-x-x-------------------------------------------------------|
F |-6s5-0--0--0-0-0--0--0--0-0--0--0----------13p0---13-------|
Bb|-----0--0--0-0-0--0--0--0-0--0--0--0-12h13------13--13p12--|

C |-----------------------------------------------|
G |-----------------------------------------------|
Eb|-----------------------------7s8-8-8-8s5-5-5---|
Bb|-----------------------------x-x-x-x-x-x-x-x---|
F |-0--0--0-0-0--0--0--0-0--0---5s6-6-6-6s3-3-3---|
Bb|-0--0--0-0-0--0--0--0-0--0-0-------------------|            
Submit corrections


        Bury Me  lessons Hard to play? Try these video lessons and learn fast Bury Me  lessons
        
↑ Back to top | Tablatures and chords for acoustic guitar and electric guitar, ukulele, drums are parodies/interpretations of the original songs. You may use it for private study, scholarship, research or language learning purposes only