Home » B » Breaking Benjamin »

Breaking Benjamin - Angels Fall Bass

Artists:  A B C D E F G H I J K L M N O P Q R S T U V W X Y Z # 

Angels Fall Bass

(ver. 1) Click to play this song!
Breaking Benjamin
 Rating:
3.5/5 (26 votes)
                Intro: X2
F|----------------|----------------|-----------|-----------|
C|----------------|----------------|-----------|-----------|
G|----------------|----------------|-----------|-----------|
C|-444--444--4540-|-444--444--4540-|-0---0---0-|-2---2---2-|

Verse 1: X4
F|-------------|-------------|-------------|-------------|
C|-------------|-------------|-------------|-------------|
G|-------------|-------------|-------------|-------------|
C|-4-----------|-7-----------|-0-----------|-2-----------|

Chorus: 
F|-----------|-----------|-------------|-------------|X2|-----------|------------|
C|-----------|-----------|-------------|-------------|X2|-----------|------------|
G|-----------|-----------|-------------|-------------|X2|-----------|------------|
C|-4-4-4-4-4-|-0-0-0-0-0-|-7-7-7-7---7-|-2-2-2-2---0-|X2|-0-0-0-0-0-|-2-2-2-2--0-|

Post Chorus:
F|----------------|----------------|-----------|-----------|
C|----------------|----------------|-----------|-----------|
G|----------------|----------------|-----------|-----------|
C|-444--444--4540-|-444--444--4-7--|-0---0---0-|-2---2---0-|

Verse 2: 
F|-------------|-------------|-------------|-------------|X2
C|-------------|-------------|-------------|-------------|X2
G|-------------|-------------|-------------|-------------|X2
C|-4-----------|-7-----------|-0-----------|-2-----------|X2

F|-------------|-------------|-------------|-------------|
C|-------------|-------------|-------------|-------------|
G|-------------|-------------|-------------|-------------|
C|-0-----------|-2-----------|-0-----------|-2-----------|

Chorus 2:
F|-----------|-----------|-------------|-------------|X2|-----------|------------|
C|-----------|-----------|-------------|-------------|X2|-----------|------------|
G|-----------|-----------|-------------|-------------|X2|-----------|------------|
C|-4-4-4-4-4-|-0-0-0-0-0-|-7-7-7-7---7-|-2-2-2-2---0-|X2|-0-0-0-0-0-|-2-2-2-2--0-|

Interlude:
F|-----------|-----------|-----------|-----------|X2|-------------|----------|
C|-----------|-----------|-----------|-----------|X2|-------------|----------|
G|-----------|-----------|-----------|-----------|X2|-------------|----------|
C|-0-0-00----|-2-2-22----|-4-4-44----|-7-----7-7-|X2|-00-0-00-0---|-2-2-22---|

Outro:
F|-----------|-----------|-------------|-------------|then|-----------|-----------|X2
C|-----------|-----------|-------------|-------------|then|-----------|-----------|X2
G|-----------|-----------|-------------|-------------|then|-----------|-----------|X2
C|-4-4-4-4-4-|-0-0-0-0-0-|-7-7-7-7---7-|-2-2-2-2---0-|then|-0-0-0-0-0-|-2-2-2-2-2-|X2

F|----------------|----------|
C|----------------|----------|
G|----------------|----------|
C|-444--444--44---|-4-2-4~~--|            
Submit corrections

↑ Back to top | Tablatures and chords for acoustic guitar and electric guitar, ukulele, drums are parodies/interpretations of the original songs. You may use it for private study, scholarship, research or language learning purposes only