» » »

Brantley Gilbert - One Hell Of An Amen Tabs

Artists:  A B C D E F G H I J K L M N O P Q R S T U V W X Y Z # 

One Hell Of An Amen Tabs

(ver. 1) Click to play this song!
Brantley Gilbert
 Rating:
2.2/5 (29 votes)

 One Hell Of An Amen  lessons Tabs too difficult? Try these video lessons and learn fast
 
                e|---------16-----14--13----------14--13-------------------------------------|
B|----14-----------------14--------------14------------16br------------------|
G|-13--------------------------------------------13--------------------------|
D|---------------------------------------------------------------------------|
A|---------------------------------------------------------------------------|
E|---------------------------------------------------------------------------|

e|---------4-----2---1------------2---1--------------------------------------|
B|-----2----------------2-----------------2-------------4br------------------|
G|--1---------------------------------------------1--------------------------|
D|---------------------------------------------------------------------------|
A|---------------------------------------------------------------------------|
E|---------------------------------------------------------------------------|            
Submit corrections


        One Hell Of An Amen  lessons Hard to play? Try these video lessons and learn fast One Hell Of An Amen  lessons
        
↑ Back to top | Tablatures and chords for acoustic guitar and electric guitar, ukulele, drums are parodies/interpretations of the original songs. You may use it for private study, scholarship, research or language learning purposes only