Home » B » Brantley Gilbert »

Brantley Gilbert - My Baby's Guns And Roses Tabs

Artists:  A B C D E F G H I J K L M N O P Q R S T U V W X Y Z # 

My Baby's Guns And Roses Tabs

(ver. 1) Click to play this song!
Brantley Gilbert
Tuning: standard


e|-----12br--12-10---12br--10------------------------------------------------|
B|-----------------------------11br-11p10h11p10------------------------------|
G|----------------------------------------------12b12r12r12r12r12r12r12r12r12|
D|---------------------------------------------------------------------------|
A|---------------------------------------------------------------------------|
E|---------------------------------------------------------------------------|

e|----------------------------------------------------------------------------|
B|---------------------------------------------13----13-15-13-15--15-17-15-19b|
G|---------------------------12----12-14-12-14----14--------------------------|
D|---------12----12-15-12-15----15--------------------------------------------|
A|15-12-15----15--------------------------------------------------------------|
E|----------------------------------------------------------------------------|

On the 12b and 12r at the end of the first part, full bend for the first bend, then while releasing, hit the string ten times until you aren't bending the string anymore. Didn't quite know how to represent that

            
Submit corrections

↑ Back to top | Tablatures and chords for acoustic guitar and electric guitar, ukulele, drums are parodies/interpretations of the original songs. You may use it for private study, scholarship, research or language learning purposes only