Home » B » Bracket »

Bracket - 2 Rak 005 Bass

Artists:  A B C D E F G H I J K L M N O P Q R S T U V W X Y Z # 

2 Rak 005 Bass
Version #3
Bracket


Copy URL
Album:"E" Is For Everything On Fat Wreck Chords(Also featured on Tony Hawk's Underground)

This should be 100% correct.It's simple punk only on the E and A strings and no fills or 
out of the ordinary.

Tuning:Standard (E,A,D,G, Low-High)

Intro

G|---------------------|
D|---------------------|
A|---------------------|
E|--77777--777--77777--|

Verse

G|-------------------------------------------------|
D|-------------------------------------------------|  X 2
A|----------------------77777777-------------------|
E|--77777777--22222222------------77777777---------|

Chorus

G|--------------------------------------------|
D|--------------------------------------------|
A|--------------------------------7777--------|
E|--44444444--77777777--44444444--------2222--|


G|------------------------------------------|
D|------------------------------------------|
A|--------------------------------44444444--|
E|--44444444--77777777--44444444------------|


G|------------------------------------------|
D|------------------------------------------|
A|--77777777----------------------77777777--|
E|------------77777777--22222222------------|


G|---------------------------------|
D|---------------------------------|
A|-----77------77------77------77--|
E|--7------77------77------77------|



Pre-Solo

G|--------------------------------------------------------------------|
D|--------------------------------------------------------------------|
A|------------------------------------77777777--99999999--------------|
E|--2~-2-2-2-2--77777777--2~-2-2-2-2----------------------------------|

plays with solo

G|---------------------------------|
D|---------------------------------| X 8
A|-----77------77------77------77--|
E|--7------77------77------77------|


after the solo

G|---------------------|
D|---------------------|
A|---------------------|
E|--77777--777--77777--|

Bridge is palm-muted Guitar,Vocals and Drums but if you want to play the guiar part it 
just the verse but here it is,


G|-------------------------------------------------|
D|-------------------------------------------------|  X 2
A|----------------------77777777-------------------|
E|--77777777--22222222------------77777777---------|

Structure:
Intro
Verse
Chorus
Verse
Chorus
Pre-Solo
Solo
Bridge
Chorus
            
Submit corrections

↑ Back to top | Tablatures and chords for acoustic guitar and electric guitar, ukulele, drums are parodies/interpretations of the original songs. You may use it for private study, scholarship, research or language learning purposes only