» » »

Boys Like Girls - Thunder Tabs

Artists:  A B C D E F G H I J K L M N O P Q R S T U V W X Y Z # 

Thunder Tabs

(ver. 3) Click to play this song!
Boys Like Girls
 Rating:
4/5 (4 votes)

 Thunder lessons Tabs too difficult? Try these video lessons and learn fast
 
                
hi po sa lahat... hahaha.... pakirate po to... im xur this is 95% and above accurate... 
is their thunder acoustic version live at AOL session...

Intro:
Guitar 1:
e|--00000000--00000000--00000000--00000000--|
B|--33333333--33333333--33333333--33333333--|
G|--22222222--22222222--22222222--22222222--|
D|--00000000--22222222--00000000--22222222--|
A|------------00000000--xxxxxxxx--00000000--|
E|----------------------33333333------------|
(continued)
e|--00000000--00000000--00000000--0~~~--|
B|--33333333--33333333--33333333--3~~~--|
G|--22222222--22222222--22222222--2~~~--|
D|--00000000--22222222--00000000--2~~~--|
A|------------00000000--xxxxxxxx--0~~~--|
E|----------------------33333333--------|
Guitar 2: enters in the second round..
e|------5--------5--------5--------5--------3--------3---------|
B|----7---7----7---7----5---5----5---5----3---3----3---3-------|
G|--7--------7--------6--------6--------5--------5--------6~~--|
D|-------------------------------------------------------------|
A|-------------------------------------------------------------|
E|-------------------------------------------------------------|

Verse:
Guitar 1:
e|--00000000--00000000--00000000--00000000--|
B|--33333333--33333333--33333333--33333333--|
G|--22222222--22222222--22222222--22222222--| 2x
D|--00000000--22222222--00000000--22222222--|
A|------------00000000--xxxxxxxx--00000000--|
E|----------------------33333333------------|

Guitar 2: enters in the second round..
e|------5--------5--------5--------5--------3--------3--------5--------5----|
B|----7---7----7---7----5---5----5---5----3---3----3---3----5---5----5---5--|
G|--7--------7--------6--------6--------5--------5--------6--------6--------|
D|--------------------------------------------------------------------------|
A|--------------------------------------------------------------------------|
E|--------------------------------------------------------------------------|

Refrain:
Guitar 1:
e|--0000--0000--0000--0000----00000000--0~~~~--|
B|--3333--3333--3333--3333----33333333--3~~~~--|
G|--2222--2222--2222--2222----22222222--2~~~~--|
D|--0000--2222--0000--0000----00000000--2~~~~--|
A|--2222--0000--xxxx----------xxxxxxxx--0~~~~--|
E|--------------3333----------33333333---------|
Guitar 2:
e|------5--------5--------5--------5--------3--------3--------5--------5----|
B|----7---7----7---7----5---5----5---5----3---3----3---3----5---5----5---5--|
G|--7--------7--------6--------6--------5--------5--------6--------6--------|
D|--------------------------------------------------------------------------|
A|--------------------------------------------------------------------------|
E|--------------------------------------------------------------------------|
(continued)
e|------5--------5--------5--------5--------3--------3---------|
B|----7---7----7---7----5---5----5---5----3---3----3---3-------|
G|--7--------7--------6--------6--------5--------5--------6~~--|
D|-------------------------------------------------------------|
A|-------------------------------------------------------------|
E|-------------------------------------------------------------|

Chorus:
Both Guitars:
e|-------------------------------------------|
B|-------------------------------------------|
G|--7777777----------------------------------|
D|--7777777--7777777--55555555--9999-7777----| 2x
A|--5555555--7777777--55555555--9999-7777----|
E|-----------5555555--33333333--7777-5555----|
(continued)
e|----------------------|
B|----------------------|
G|----------------------|
D|--55555555--77777777--|
A|--55555555--77777777--|
E|--33333333--55555555--|

Verse:
Guitar 1:
e|--00000000--00000000--00000000--00000000--|
B|--33333333--33333333--33333333--33333333--|
G|--22222222--22222222--22222222--22222222--|
D|--00000000--22222222--00000000--22222222--|
A|------------00000000--xxxxxxxx--00000000--|
E|----------------------33333333------------|
(continued)
e|--0------0------00000000--00000000--|
B|--3-P----3-P----33333333--33333333--|
G|--2-A----2-A----22222222--22222222--|
D|--0-U----2-U----00000000--22222222--|
A|----S------S----xxxxxxxx--00000000--|
E|----E------E----33333333------------|

Guitar 2:
e|------5--------5--------5--------5--------3--------3--------5--------5----|
B|----7---7----7---7----5---5----5---5----3---3----3---3----5---5----5---5--|
G|--7--------7--------6--------6--------5--------5--------6--------6--------|
D|--------------------------------------------------------------------------|
A|--------------------------------------------------------------------------|
E|--------------------------------------------------------------------------|
(continued)
e|--5------5----------3--------3--------5--------5----|
B|--7-P----5-P------3---3----3---3----5---5----5---5--|
G|--7-A----6-A----5--------5--------6--------6--------|
D|----U------U----------------------------------------|
A|----S------S----------------------------------------|
E|----E------E----------------------------------------|

Refrain:
Guitar 1:
e|--0000--0000--0000--0000----00000000--0~~~~--|
B|--3333--3333--3333--3333----33333333--3~~~~--|
G|--2222--2222--2222--2222----22222222--2~~~~--|
D|--0000--2222--0000--0000----00000000--2~~~~--|
A|--2222--0000--xxxx----------xxxxxxxx--0~~~~--|
E|--------------3333----------33333333---------|
Guitar 2:
e|------5--------5--------5--------5--------3--------3--------5--------5----|
B|----7---7----7---7----5---5----5---5----3---3----3---3----5---5----5---5--|
G|--7--------7--------6--------6--------5--------5--------6--------6--------|
D|--------------------------------------------------------------------------|
A|--------------------------------------------------------------------------|
E|--------------------------------------------------------------------------|
(continued)
e|------5--------5--------5--------5--------3--------3---------|
B|----7---7----7---7----5---5----5---5----3---3----3---3-------|
G|--7--------7--------6--------6--------5--------5--------6~~--|
D|-------------------------------------------------------------|
A|-------------------------------------------------------------|
E|-------------------------------------------------------------|

Chorus:
Both Guitars:
e|-------------------------------------------|
B|-------------------------------------------|
G|--7777777----------------------------------|
D|--7777777--7777777--55555555--9999-7777----| 2x
A|--5555555--7777777--55555555--9999-7777----|
E|-----------5555555--33333333--7777-5555----|
(continued)
e|----------------------|
B|----------------------|
G|----------------------|
D|--55555555--77777777--|
A|--55555555--77777777--|
E|--33333333--55555555--|

Bridge:
Both Guitars:
e|--0000--0000--0000--000000--0000--0000------------00000000--|
B|--3333--3333--3333--333333--3333--3333--33333333--33333333--|
G|--0000--2222--2222--222222--2222--2222--22222222--22222222--|
D|--2222--0000--2222--000000--0000--0000--22222222--00000000--|
A|--2222--2222--0000--xxxxxx--------2222--00000000--xxxxxxxx--|
E|--0000--------------333333------------------------33333333--|

Post-Chorus:
Guitar 1:
e|--00000000--00000000--00000000--0~~~--|
B|--33333333--33333333--33333333--3~~~--|
G|--22222222--22222222--22222222--2~~~--|
D|--00000000--22222222--00000000--2~~~--|
A|------------00000000--xxxxxxxx--0~~~--|
E|----------------------33333333--------|

Chorus:
Both Guitars: play this twice
e|--------------------------------------------|
B|----------------------------------------P---|
G|--7777777-------------------------------A---|
D|--7777777--7777777--55555555--9999-7777-U---|
A|--5555555--7777777--55555555--9999-7777-S---|
E|-----------5555555--33333333--7777-5555-E---|
(continued)
e|-------------------------------------------|
B|-------------------------------------------|
G|--7777777----------------------------------|
D|--7777777--7777777--55555555--9999-7777----|
A|--5555555--7777777--55555555--9999-7777----|
E|-----------5555555--33333333--7777-5555----|
(continued)
e|-------------------------------------|
B|-------------------------------------|
G|-------------------------------------|
D|--55555555--77777777--55555555--7~~--|
A|--55555555--77777777--55555555--7~~--|
E|--33333333--55555555--33333333--5~~--|

End on:
e|------|
B|------|
G|--7~--|
D|--7~--|
A|--5~--|
E|------|
            
Submit corrections


        Thunder lessons Hard to play? Try these video lessons and learn fast Thunder lessons
        
↑ Back to top | Tablatures and chords for acoustic guitar and electric guitar, ukulele, drums are parodies/interpretations of the original songs. You may use it for private study, scholarship, research or language learning purposes only