» » »

Boys Like Girls - Thunder Tabs

Artists:  A B C D E F G H I J K L M N O P Q R S T U V W X Y Z # 

Thunder Tabs

(ver. 2) Click to play this song!
Boys Like Girls
 Rating:
4/5 (4 votes)

 Thunder lessons Tabs too difficult? Try these video lessons and learn fast
 
                my first tab =]
thunder not at all a difficult song
open d tuning
dadf#ad

verse pt1:
 d|-0--0--0--0--0--0--0--0|
 a|-0--0--0--0--0--0--0--0|
f#|-0--x--x--x--0--x--x--7|
 d|-0--x--x--x--0--x--x--7|
 a|-0--7--5--7--0--7--5--0|
 d|-0--7--5--7--0--7--5--0|

vers pt2: 
 d|-0--0--0--0---0--0----------0|
 a|-0--0--0--0---0--0----------0|
f#|-x--x--x--x---x--x-end on---7|
 d|-x--x--x--x---x--x----------7|
 a|-2--7--4--7---5--5----------0|
 d|-2--7--4--7---5--5----------0|


chorus:
 d|-0--0--0--0--0--0--0--0|    |-0--0| 
 a|-0--0--0--0--0--0--0--0|    |-0--0|
f#|-0--0--x--x--x--x--x--x|x2  |-x--x|
 d|-0--0--x--x--x--x--x--x|    |-x--x|
 a|-0--0--7--7--5--5--2--7|    |-5--7|
 d|-0--0--7--7--5--5--2--7|    |-5--7|

 d|-0--0--0--0--0--0--0--0|
 a|-0--0--0--0--0--0--0--0|
f#|-0--x--x--x--0--x--x--7|
 d|-0--x--x--x--0--x--x--7|
 a|-0--7--5--7--0--7--5--0|
 d|-0--7--5--7--0--7--5--0|


 d|-0--0--0--0---0--0----------0|
 a|-0--0--0--0---0--0----------0|
f#|-x--x--x--x---x--x-end on---7|
 d|-x--x--x--x---x--x----------7|
 a|-2--7--4--7---5--5----------0|
 d|-2--7--4--7---5--5----------0|

 d|-0--0--0--0--0--0--0--0|    |-0--0| 
 a|-0--0--0--0--0--0--0--0|    |-0--0|
f#|-0--0--x--x--x--x--x--x|x2  |-x--x|
 d|-0--0--x--x--x--x--x--x|    |-x--x|
 a|-0--0--7--7--5--5--2--7|    |-5--7|
 d|-0--0--7--7--5--5--2--7|    |-5--7|


 d|-0----0----0----0----0--0--0-|
 a|-0----0----0----0----0--0--0-|
f#|-x----x----x----x----x--x--7-|
 d|-x----x----x----x----x--x--7-|
 a|-2----4----2----4----5--7--0-|
 d|-2----4----2----4----5--7--0-|

 d|-0--0--0--------------0|
 a|-0--0--0--------------0|
f#|-0--x--x-----end on---x|
 d|-0--x--x--------------x|
 a|-0--7--5--------------7|
 d|-0--7--5--------------7|

 d|-0--0--0--0--0--0--0--0|    |-0--0|          |-0-|
 a|-0--0--0--0--0--0--0--0|    |-0--0|          |-0-|
f#|-0--0--x--x--x--x--x--x|x3  |-x--x|x2 end on |-0-|
 d|-0--0--x--x--x--x--x--x|    |-x--x|          |-0-|
 a|-0--0--7--7--5--5--2--7|    |-5--7|          |-0-|
 d|-0--0--7--7--5--5--2--7|    |-5--7|          |-0-|
            
Submit corrections


        Thunder lessons Hard to play? Try these video lessons and learn fast Thunder lessons
        
↑ Back to top | Tablatures and chords for acoustic guitar and electric guitar, ukulele, drums are parodies/interpretations of the original songs. You may use it for private study, scholarship, research or language learning purposes only