» » »

Boys Like Girls - Holiday Tabs

Artists:  A B C D E F G H I J K L M N O P Q R S T U V W X Y Z # 

Holiday Tabs

(ver. 3) Click to play this song!
Boys Like Girls
 Rating:
4/5 (4 votes)

 Holiday lessons Tabs too difficult? Try these video lessons and learn fast
 
                                        Holiday
           |I did this one as fast as I could|
           |It may not be 100%?              |

Intro/ Whole verse
e----------12----12---12------|\
B---12-12-----12----12---12---| \ 
G-----9---9--9--9--9----9--9--|  \
D-----------------------------|  /  A bunch of Times
A-----------------------------| /
E-----------------------------|/

Chorus 
e------------------------------------------------------|\
B-----------------------------9~~----------------------| \ 
D--9~~-------------2~~--244~--7~~--9~~--11~~--42~~--244|  \
G--9~~--9~~--11~~--2~~--244~--9~~--9~~--11~~--42~~--244|  / X1
A--7~~--9~~--11~~--0~~--022~--7~~--7~~--9-~~--20~~--022| /
E--7~~--7~~--9-~~--0~~---------------------------------|/

Verse 2
Guitar 1 (Electric)
e----------12----12---12------|\
B---12-12-----12----12---12---| \ 
G-----9---9--9--9--9----9--9--|  \
D-----------------------------|  /  A bunch of Times
A-----------------------------| /
E-----------------------------|/
Guitar 2 (Acustic Strumming)
e--------------------------------|\
B--------------------------------| \ 
D-------------------------2------|  \
G--9------9------11-------2------|  / A bunch of Times 
A--7-X(8)-9-x(8)-11-x(8)--0-x(8)-| /
E--7------7------9--------0------|/

Chorus 
e------------------------------------------------------|\
B-----------------------------9~~----------------------| \ 
D--9~~-------------2~~--244~--7~~--9~~--11~~--42~~--244|  \
G--9~~--9~~--11~~--2~~--244~--9~~--9~~--11~~--42~~--244|  / X1
A--7~~--9~~--11~~--0~~--022~--7~~--7~~--9-~~--20~~--022| /
E--7~~--7~~--9-~~--0~~---------------------------------|/

Riff 1 (I Can't get it but this works)
e--------------------------------|\
B--------------------------------| \ 
D-------------------------2------|  \
G--9------9------11-------2------|  / 2 
A--7-X(8)-9-x(8)-11-x(8)--0-x(8)-| /
E--7------7------9--------0------|/

Verse 3
Guitar 1 (Electric)
e----------12----12---12------|\
B---12-12-----12----12---12---| \ 
G-----9---9--9--9--9----9--9--|  \
D-----------------------------|  /  X 2
A-----------------------------| /
E-----------------------------|/
Guitar 2 (Acustic Strumming)
e--------------------------------|\
B--------------------------------| \ 
D-------------------------2------|  \
G--9------9------11-------2------|  / X 2
A--7-X(8)-9-x(8)-11-x(8)--0-x(8)-| /
E--7------7------9--------0------|/

Chorus (Again)
e------------------------------------------------------|\
B-----------------------------9~~----------------------| \ 
D--9~~-------------2~~--244~--7~~--9~~--11~~--42~~--244|  \
G--9~~--9~~--11~~--2~~--244~--9~~--9~~--11~~--42~~--244|  / X1
A--7~~--9~~--11~~--0~~--022~--7~~--7~~--9-~~--20~~--022| /
E--7~~--7~~--9-~~--0~~---------------------------------|/

Riff 3
Guitar 1 (Electric)
e----------12----12---12------|\
B---12-12-----12----12---12---| \ 
G-----9---9--9--9--9----9--9--|  \
D-----------------------------|  /  A bunch of Times
A-----------------------------| /
E-----------------------------|/
Guitar 2 (Acustic Strumming)
e--------------------------------|\
B--------------------------------| \ 
D-------------------------2------|  \
G--9------9------11-------2------|  / A bunch of Times 
A--7-X(8)-9-x(8)-11-x(8)--0-x(8)-| /
E--7------7------9--------0------|/
 Keep playing until song ends.
            
Submit corrections


        Holiday lessons Hard to play? Try these video lessons and learn fast Holiday lessons
        
↑ Back to top | Tablatures and chords for acoustic guitar and electric guitar, ukulele, drums are parodies/interpretations of the original songs. You may use it for private study, scholarship, research or language learning purposes only