» » »

Boys Like Girls - Holiday Tabs

Artists:  A B C D E F G H I J K L M N O P Q R S T U V W X Y Z # 

Holiday Tabs

(ver. 1) Click to play this song!
Boys Like Girls
 Rating:
4/5 (4 votes)

 Holiday lessons Tabs too difficult? Try these video lessons and learn fast
 
                pretty easy but fun to play

intro

h= harmonics

guitar 2
e----------------h12---------h12--------h12----------|
B--h12-----h12---------h12---------h12--------h12----|
G-------9------9-----9-----9-----9-----9----9-----9--|
D----------------------------------------------------|
A----------------------------------------------------|
E----------------------------------------------------|

this pretty much repeats through out the whole song


guitar 1

verse

e--0--0--0--0----0--|
B--0--0--0--0----0--|
G--1--4--6--2--\-4--|
D--2--4--6--2--\-4--|
A--2--2--4--0----2--|
E--0----------------|
when i was younger i used to be wild...

chorus

e--0--0--0--0---0--|--0--0--0------0---0-|
B--0--0--0--0---0--|--0--0--0------0---0-|
G--1--4--6--2--\4--|--1--4--4--44--2--\4-|
D--2--4--6--2--\4--|--2--4--4--44--2--\4-|
A--2--2--4--0---2--|--2--2--6--62--0---2-|
E--0---------------|--0------------------|

before i run...

verse

e--0--0--0--0----0--------|
B--0--0--0--0----0--------|
G--1--4--6--2--\-4--------|
D--2--4--6--2--\-4--------|
A--2--2--4--0----2--------|
E--0----------------------|

my father he was...


chorus

e--0--0--0--0---0---|--0--0--0----------0-----|
B--0--0--0--0---0---|--0--0--0----------0-----|
G--1--4--6--2--\4---|--1--4--6--64--2--\4-----|
D--2--4--6--2--\4---|--2--4--6--64--2--\4-----|
A--2--2--4--0---2---|--2--2--4--42--0---2-----|
E--0----------------|--0----------------------|

you know ill...

BOTH GUITARS

interlude

e-----------------|-----------------|
B-----------------|-----------------|
G-----------------|-----------------|
D--7--6--4--9-----|--end on--2------|let ring out as guitar 2 plays intro
A--7--6--4--9--x2-|----------2------|
E--5--4--2--7-----|----------0------|
ive broken too many...

guitar 2 plays intro til end

verse

guitar 1

e--0--0--0--0---0------|
B--0--0--0--0---0------|
G--0--4--6--2--\4------|1x
D--2--4--6--2--\4---2--|
A--2--2--4--0---2---2--|
E--0----------------0--|

when i was younger...


chorus

e--0--0--0--0--0-|--0--0--0-------0--0----|
B--0--0--0--0--0-|--0--0--0-------0--0----|
G--1--4--6--2-\4-|--1--4--6--642--2-/4----|
D--2--4--6--2-\4-|--2--4--6--642--2-/4----|
A--2--2--4--0--2-|--2--2--4--420--0--2----|
E--0-------------|--0---------------------|

ill run a way...


while drums are playing
guitar 1 plays :interlude
guitar 2 plays :intro till song fades out

also for chorus you could play with out open b and e depends on what you like better
            
Submit corrections


        Holiday lessons Hard to play? Try these video lessons and learn fast Holiday lessons
        
↑ Back to top | Tablatures and chords for acoustic guitar and electric guitar, ukulele, drums are parodies/interpretations of the original songs. You may use it for private study, scholarship, research or language learning purposes only