Home » B » Boysetsfire »

Boysetsfire - Handful Of Redemption Tabs

Artists:  A B C D E F G H I J K L M N O P Q R S T U V W X Y Z # 

Handful Of Redemption Tabs

(ver. 1) Click to play this song!
Boysetsfire
This song is awesome and really easy to play

My fav. song of the new CD and I cant beleive there isnt a tab out there for
it.

I dont have the solo tabbed out just yet...maybe later, if you have it, email

DROP D TUNING

VERSE - DISTORTED
PM - *

E|------------------------------------------
B|------------------------------------------  on the last time dont palm mute
G|------------------------------------------  the Eb chord
D|-5-5-5-5-5-5-5-5-5-5/3/1-1-1-1-1-1-1-1-1-1
A|-5-5-5-5-5-5-5-5-5-5/3/1-1-1-1-1-1-1-1-1-1
D|-5-5-5-5-5-5-5-5-5-5/3/1-1-1-1-1-1-1-1-1-1
     * * * * * * * * *     * * * * * * * * *

CHORUS - DISTORTED

E|----------------------------------------------------------------
B|----------------------------------------------------------------
G|----------------------------------------------------------------
D|-1-1-1-1-1-1-1-1-8-8-8-8-8-8-8-8-5-5-5-5-5-5-5-5-1-1-1-1-1-1-1-1
A|-1-1-1-1-1-1-1-1-8-8-8-8-8-8-8-8-5-5-5-5-5-5-5-5-1-1-1-1-1-1-1-1
D|-1-1-1-1-1-1-1-1-8-8-8-8-8-8-8-8-5-5-5-5-5-5-5-5-1-1-1-1-1-1-1-1

VERSE (PALM MUTE AS NEEDED) - DISTORTED

E|------------------------------------------
B|------------------------------------------ on the last time dont palm mute
G|------------------------------------------ the Eb chord
D|-5-5-5-5-5-5-5-5-5-5/3/1-1-1-1-1-1-1-1-1-1
A|-5-5-5-5-5-5-5-5-5-5/3/1-1-1-1-1-1-1-1-1-1
D|-5-5-5-5-5-5-5-5-5-5/3/1-1-1-1-1-1-1-1-1-1
     * * * * * * * * *     * * * * * * * * *

CHORUS - DISTORTED

E|----------------------------------------------------------------
B|----------------------------------------------------------------
G|----------------------------------------------------------------
D|-1-1-1-1-1-1-1-1-8-8-8-8-8-8-8-8-5-5-5-5-5-5-5-5-1-1-1-1-1-1-1-1
A|-1-1-1-1-1-1-1-1-8-8-8-8-8-8-8-8-5-5-5-5-5-5-5-5-1-1-1-1-1-1-1-1
D|-1-1-1-1-1-1-1-1-8-8-8-8-8-8-8-8-5-5-5-5-5-5-5-5-1-1-1-1-1-1-1-1

SOLO PART - DISTORTED

FOR THIS PART I JUST PLAY WHAT THE SECOND GUITAR PLAYS WHICH IS THE SAME AS THE CHORUS.
I JUST STRUM THE CHORDS ONCE THOUGH

BRIDGE - CLEAN OR CHORUS

E|------------------------------------
B|------------------------------------
G|------------------------------------
D|-5-5-5-5-5-5-5-5-/3/-1-1-1-1-1-1-1-1
A|-5-5-5-5-5-5-5-5-/3/-1-1-1-1-1-1-1-1
D|-5-5-5-5-5-5-5-5-/3/-1-1-1-1-1-1-1-1

E|----------------------------------------------
B|----------------------------------------------
G|----------------------------------------------
D|-5-5-5-5-5-5-5-5-/8-8/-13-13-13-13-13-13-13-13
A|-5-5-5-5-5-5-5-5-/8-8/-13-13-13-13-13-13-13-13
D|-5-5-5-5-5-5-5-5-/8-8/-13-13-13-13-13-13-13-13

E|------------------------------------\
B|------------------------------------ \
G|------------------------------------  \ play this part until the
D|-5-5-5-5-5-5-5-5-/3/-1-1-1-1-1-1-1-1  / bridge is done
A|-5-5-5-5-5-5-5-5-/3/-1-1-1-1-1-1-1-1 /
D|-5-5-5-5-5-5-5-5-/3/-1-1-1-1-1-1-1-1/

RIGHT BEFORE THIS CHORUS DO A PICKScr*pE

CHORUS - DISTORTED

E|----------------------------------------------------------------
B|----------------------------------------------------------------
G|----------------------------------------------------------------
D|-1-1-1-1-1-1-1-1-8-8-8-8-8-8-8-8-5-5-5-5-5-5-5-5-1-1-1-1-1-1-1-1
A|-1-1-1-1-1-1-1-1-8-8-8-8-8-8-8-8-5-5-5-5-5-5-5-5-1-1-1-1-1-1-1-1
D|-1-1-1-1-1-1-1-1-8-8-8-8-8-8-8-8-5-5-5-5-5-5-5-5-1-1-1-1-1-1-1-1

well have fun kids...fun easy song to play, please rate
            
Submit corrections

↑ Back to top | Tablatures and chords for acoustic guitar and electric guitar, ukulele, drums are parodies/interpretations of the original songs. You may use it for private study, scholarship, research or language learning purposes only