» » »

Boyce Avenue - Babylon Tabs

Artists:  A B C D E F G H I J K L M N O P Q R S T U V W X Y Z # 

Babylon Tabs

(ver. 2) Click to play this song!
Boyce Avenue
 Rating:
4/5 (4 votes)
                (Intro)
capo: 1st fret
tuning: standard

video:



the rest of the song is pretty similar to the original but if i find the time, 
i'll put that up too. 
but you should be able to figure it out by playing along to the video. 
have fun and feel free to leave any improvements etc.




h=hammer-on


      D               A                  Em               F#m
e--------2---2--|---------------|---------------|-------------|
B---------------|--------2---3--|---------------|--------0----|
G-----0h2--2----|---------------|--------0------|----------2--|
D--0------------|----0h2---2----|----------2----|------4------|
A---------------|--0------------|----0h2--------|----4--------|
E---------------|---------------|--0---------0--|--2----------|



       D                    A          Em              A
e--------2---2--|---------------|---------------|-------------|
B---------------|--------2---3--|---------------|--------2----|
G-----0h2--2----|---------------|--------0------|------2------|
D--0------------|----0h2---2----|----------2----|----2--------|
A---------------|--0------------|----0h2-----2--|--0----------|
E---------------|---------------|--0------------|-------------|
            
Submit corrections

↑ Back to top | Tablatures and chords for acoustic guitar and electric guitar, ukulele, drums are parodies/interpretations of the original songs. You may use it for private study, scholarship, research or language learning purposes only