» » »

Boyce Avenue - Be Somebody Tabs

Artists:  A B C D E F G H I J K L M N O P Q R S T U V W X Y Z # 

Be Somebody Tabs

(ver. 1) Click to play this song!
Boyce Avenue
 Rating:
3.2/5 (23 votes)


 Be Somebody  lessons Tabs too difficult? Try these video lessons and learn fast
 
                Intro:

e|-----------------------------------------------------------------|
B|----------6------------------------------6-----------------------|
G|------------3--3---3------10---------------3--3---3------10------|
D|----8--5-------------3------8------8--5-------------3------8-----|
A|-5--5-----6----6--/1---1--8---8/5--5-----6----6--/1---1--8-------|
E|-----------------------------------------------------------------|

Verse:

e|-----------------------------------------------------------------|
B|----------6------------------------------6-----------------------|
G|------------3--3---3------10---------------3--3---3------10------|
D|----8--5-------------3------8------8--5-------------3------8-----|
A|-5--5-----6----6--/1---1--8---8/5--5-----6----6--/1---1--8-------|
E|-----------------------------------------------------------------|

e|-----------------------------------------------------------------|
B|----------6------------------------------6-----------------------|
G|------------3--3---3------10---------------3--3---3------10------|
D|----8--5-------------3------8------8--5-------------3------8-----|
A|-5--5-----6----6--/1---1--8---8/5--5-----6----6--/1---1--8-------|
E|-----------------------------------------------------------------|

Bridge:

      Gb    Eb       Bb     F        Gb    Eb       Bb     F 
e|----3-----3--------1------1--------3-----3--------1------1-------|
B|----3-----4--------3------1--------3-----4--------3------1-------|
G|----3-----3--------3------2--------3-----3--------3------2-------|
D|----5-----5--------3------3--------5-----5--------3------3-------|
A|----5-----6--------1------3--------5-----6--------1------3-------|
E|----3-----3--------1------1--------3-----3--------1------1-------|

Chorus:

      Eb     Bb     Gb     F      Eb     Bb     Gb     F 
e|----3------1------3------1------3------1------3------1-----------|
B|----4------3------3------1------4------3------3------1-----------|
G|----3------3------3------2------3------3------3------2-----------|
D|----5------3------5------3------5------3------5------3-----------|
A|----6------1------5------3------6------1------5------3-----------|
E|----3------1------3------1------3------1------3------1-----------|
            
Submit corrections



        Be Somebody  lessons Hard to play? Try these video lessons and learn fast Be Somebody  lessons
        
↑ Back to top | Tablatures and chords for acoustic guitar and electric guitar, ukulele, drums are parodies/interpretations of the original songs. You may use it for private study, scholarship, research or language learning purposes only